Ab mujhe Raat Din : CHORDS & TABS : Complete : Sonu Nigam

Discussion in 'Hindi Guitar Tabs - Submit or Request' started by shantanukr, Dec 29, 2005.

  1. shantanukr

    shantanukr yEh DiL mAanGe m0rE

    Hi everyone .. Chk out my latest work and do post ur Comments ...

    *****************************************
    Song Name : Ab mujhe Raat din
    Singer : Sonu Nigam

    Chords & Tabs By : S.h.a.n.t.a.n.u. .K.r.
    *****************************************

    [Mukhada]

    Am.......G.......
    Ab mujhe raat din,

    ...........Am........
    tumhara hi khayal hai.

    Am.........G.......
    Kya karoon pyar mein,

    ..............Am......
    diwanon jaisa haal hai.

    Am............Em........
    Diwanon jaisa haal haiii,

    E..........C.........
    Tumhara hi khayal hai.

    [MUSIC]

    Am........G.
    OooO a ha ha

    G..............C...
    la la la la la laa.

    [Guitar Lead]

    Play FAST

    E---------------------------------
    B-0-1-0---0--0-1-0---0------------
    G-------2----------2-------2-2-2--
    D----------------------0-2--------

    E---------------------------------
    B-0-1-0---0--0-1-0---0------------
    G-------2----------2-----2--0-0-0-
    D----------------------2----------

    E---------------------------------
    B--0-2-4-2-4--2-0---0-2-4-2-4--2-0
    G---------------------------------
    D---------------------------------

    E---------------------------------
    B--------0-2-4-0------------------
    G--4-4-4---------2----------------
    D---------------------------------

    [Antra]

    Am...........G......
    Tum ko dekhe binaaaa,

    ............Am..
    Chaen milta nahi.

    Am...........G..
    Dil pe ab to koi,

    ...........Am..
    jor chalta nahi.

    Am........D....
    Jaadu hai kaisa,

    E----0-1--
    B--3------

    Am.....D........
    dil ki lagi mein,

    E----0-1--
    B--3------

    Am........Em...
    doob gaya hoon,

    ...........Am..
    is bekhudi mein.


    :beer:
     
  2. suchin

    suchin New Member

    Good Shantanu, Nice Job, But cood u plz post the starting tabs of the song, they r kinda
    more complicated.
     
  3. shantanukr

    shantanukr yEh DiL mAanGe m0rE

    hey Suchin .. Thanks for ur Comments ... I will try to TAB out
    the STARTING portion ..

    Hey guys comeon 100 Views and only 1 Reply ....

    Post ur Comments ..
     
  4. khuddusantana

    khuddusantana New Member

    hey dude ... these chords rock man !!! awsome
     
  5. sandeepm05

    sandeepm05 New Member

    it rocks dude
    nice work................
     
  6. yana

    yana New Member

    Request:-- Chords for the song Yeh toh Sach ki Bhagwan hai

    Hi
    Can somebody please post the chords for the song "Yeh toh Sach hai ki Bhagwan hai " from the movie Hum saath hai... Please help, need these chords to play them for MOM and Dad's 25th anniversary.. Please help!!

    thanks
    yana
     
  7. y_muralee

    y_muralee New Member

    Awesome!

    Awesome work, thx for sharing ! Pls do provide the intro part also if possible, was looking for the whole song for quite a while.
    Cheers
     
  8. talk2devid

    talk2devid New Member

    please complete the post man.........waiting for it.... :p :p
     
  9. mygittu

    mygittu New Member

    chords are not correct 100%

    i dun think your chords are 100% correct buddy!! there is something missing!!
     
  10. lalit_rocks

    lalit_rocks New Member

    Ab mujhe raat din (Sonu Nigam) Guitar leads & chords

    Gm......D...F.....Gm
    Hey zu Hmm Hmm Hmm Hmm

    Gm......D........F......Gm
    hey hey hey hey hey hey



    Gm..................D................Gm
    Ab mujhe raat din tumhara hi khayal hain

    Gm..................D.................Gm
    Ab mujhe raat din tumhara hi khayal hain

    Gm...................D.........................Gm
    kya kahu pyaar mein deewano jaisa haal hain

    Gm..................F..............Bb.............D.......
    deewano jaisa haal hain tumhara hi khayal hain

    Gm..............D......F.........Bb..Gm
    Ho ho aa ha ha ha la la la la la la


    e|----------------------------------------------------------------------------|
    B|----------------------------------------------------------------------------|
    G|--2-3-2---2--2-3-2---2-----------------2-3-2---2--2-3-2---2-----------------|
    D|--------5----------5----3---3s5-5v-----------5----------5------3s5-3-3v-----|
    A|--------------------------5----------------------------------5--------------|
    E|----------------------------------------------------------------------------|

    e|--------------------------------------------------------------------------|
    B|--------------------------------------------------------------------------|
    G|-------2---2h3p2-------------2---2h3p2---------------------2h3p2----------|
    D|---3-5---5-------5-3-----3-5---5-------5-3---2h3p2-2-2-2-3-------3—0h1-0--|
    A|--------------------------------------------------------------------------|
    E|--------------------------------------------------------------------------|



    e|-------------------------------------|
    B|-----3h4p3---------3-3-4-6-3---------|
    G|-----------5-3---5-------------------|
    D|-------------------------------------|
    A|-------------------------------------|
    E|-------------------------------------|


    e|-----------------------------------------|
    B|-----------------------------------------|
    G|-------------2-3-5-3-2—2h3p2-------------|
    D|---------3-5-----------------5-3---------|
    A|-----1s3---------------------------------|
    E|-----------------------------------------|


    Gm..................C..................Gm
    Tum ko dekhe bina chain milta nahi

    Gm..............C...............Gm
    dil pe ab to koi zor chalta nahi

    F
    jaadu hain kaisa

    e|----------------------------------------------------|
    B|-------------3-4-6-4-3-3h4p3-------3----------------|
    G|---------3-5-----------------5-3-5---5-3-5----------|
    D|-----3s5--------------------------------------------|
    A|----------------------------------------------------|
    E|----------------------------------------------------|



    ........Ab
    dil ki lagi mein


    e|-------------4-6-6s8-8-8-6h8p6----------------|
    B|---------4-6-------------------9-9------------|
    G|-----3s5--------------------------------------|
    D|----------------------------------------------|
    A|----------------------------------------------|
    E|----------------------------------------------|



    F.............D...........Gm
    dub gaya hu is bekhudi mein

    Ho ho aa ha ha ha la la la la la la
     
  11. satisanty

    satisanty New Member

    doubt

    hi shantnu
    nice work dude
    if i'm not wrong this song is on C major scale and c-major chord patterns is

    C-M D-m E-m F-M G-M Am Bdim C
    but u have also used E-major along with E-m.

    please clear my doubt.i'm not very good in theroy so please help me to improve my theory
     

Share This Page