Aaye ho meri zindagi mein tum bahaar banke : Raja HIndustaani

Discussion in 'Hindi Guitar Tabs - Submit or Request' started by VisOrchestraGrp, Mar 4, 2008.

  1. VisOrchestraGrp

    VisOrchestraGrp New Member

    MOVIE - RAJA HINDUSTAANI
    REQ. BY - ERNAV

    ** Guys I am a bit confused when first time I tab this song the scale of this
    song is E while second time I found the scale is F .
    Here the tabs are given having E as scale . If according to you F is the scale
    just add in all the notes to change it to F scale.

    ......Aaye....ho....meri.......zindagi....mein
    D |-----------6----4-6-4---------------------------------------------
    A |--7-7----------------------7-6-4------6---------------------------

    ......Tum....bahaar........banke
    D |----------6-4-6-4-------------------------------------------------
    A |--7--------------------7-6-7--------------------------------------

    FILLER :-

    D |--9-9-9--8-8-8--6-6-6--4-4-4--4-6-4---------------------------
    A |--------------------------------------------7-6-7------------------

    ......Aaye....ho....meri.......zindagi....mein
    D |-----------6----4-6-4---------------------------------------------
    A |--7-7----------------------7-6-4------6---------------------------

    ......Tum....bahaar........banke
    D |----------6-4-6-4-------------------------------------------------
    A |--7--------------------7-6-7--------------------------------------

    ......Aaye....ho....meri......zindagi....mein
    D |-----------6----4-7-6---------------------------------------------
    A |--7-7---------------------7-6-4-------6---------------------------

    ......Tum....bahaar........banke
    D |----------6-4-6-4------------------------------------------------
    A |--7---------------------7-6-7------------------------------------

    ......Mere....dil....mein....yu......hi....rehna....Haaye s s s s s s s
    G |-----------------8------6-8----6------------------------6-----------
    D |--9-9-----9--------------------------9-8-9----8-6-8-------8-6----

    ......Mere....dil....mein....yu......hi....rehna
    G |-----------------8------6-8----6------------------------------------
    D |--9-9-----9--------------------------9-8-9-------------------------

    ......Tum....pyar....pyar....banke
    G |-------------------3-4---------------------------------------------
    D |--6-4----4-4--------------6-4-------------------------------------
    A |-----------------------------------7--------------------------------

    ......Aaye....ho....meri......zindagi....mein
    D |-------------6----4-6-4--------------------------------------------
    A |--7-7----------------------7-6-4-------6---------------------------

    ......Aaye....ho....meri.......zindagi....mein
    D |-----------6----4-6-4---------------------------------------------
    A |--7-7----------------------7-6-4------6---------------------------

    ......Tum....bahaar........banke
    D |----------6-4-6-4-------------------------------------------------
    A |--7--------------------7-6-7--------------------------------------

    FILLER :-

    D |--9-9-9--8-8-8--6-6-6--4-4-4--4-6-4---------------------------
    A |--------------------------------------------7-6-7------------------

    ......Aankhon mein..tum....basey....ho.....sapne......hazaar....banke
    D |-------------6-----4-6----4--------------------------6-4-6-4--------------
    A |--7-7-------------------------7-6----4----4-6-7-----------------7-6-7----

    ......Aankhon mein..tum....basey....ho.....sapne......hazaar....banke
    D |-------------6-----4-7----6--------------------------6-4-6-4--------------
    A |--7-7-------------------------7-6----4----4-6-7-----------------7-6-7----

    ......Mere....dil....mein....yu......hi....rehna....Haaye s s s s s s s
    G |-----------------8------6-8----6------------------------6-----------
    D |--9-9-----9--------------------------9-8-9----8-6-8-------8-6----

    ......Mere....dil....mein....yu......hi....rehna
    G |-----------------8------8-9----8---------------------------------
    D |--9-9-----9--------------------------9-8-6-----------------------

    ......Tum....pyar....pyar....banke
    G |------------------3-4----------------------------------------------
    D |--6-4----4-4-------------6-4--------------------------------------
    A |---------------------------------7----------------------------------


    STANZA :-

    ......Mere....saathi....mere....saajan....mere....saath....yu.......hi....chalna
    G |--8-8-----8-8------6-8-----8-9-9------------------------6-4-----2---------------
    D |----------------------------------------6-6-------6-7--------------------4---------
    A |-------------------------------------------------------------------------------7-----

    ......Badllega....rang....zamana....par....tum....nahi......badalna
    G |--8-8-8-8----6-------8-8-9-9-----------------------6----4-2---------------------
    D |-----------------------------------6------6-------7--------------4-----------------
    A |----------------------------------------------------------------------7--------------



    Meri maang yu hi bharna taare hazaar banke
    SAME AS LINE Aaye ho meri zindagi mein tu bahaar banke
     
  2. APPLE SINGH

    APPLE SINGH New Member

    Kya praaji !

    Praaji agar khud confused the to auron ko kyun confused kiya kisi bhi ek
    scale se tabs post kar dete . Ab saare ke saare NEWBIES CONFUSED
    RAHENGE ki origional scale kya hai .

    ******************* Bolo what a fun***********************
     
  3. ernav

    ernav New Member

    its tabbin nice,thanks[:)]
     

Share This Page