Aage Bhi Jaane Na Tu(Golden Hits Rewind) Guitar Chords

Discussion in 'Hindi Guitar Tabs - Submit or Request' started by jimihndrx, Aug 8, 2015.

  1. jimihndrx

    jimihndrx Guitar Hero

    [​IMG]
    Song- Aage Bhi Jaane Na Tu
    Film- Waqt(1965)
    Lyrics- Sahir Ludhianvi
    Music- Ravi
    Singer- Asha Bhosle
    Key- E Flat Natural Minor

    Chords- Continuing my "Golden Hits Rewind Series#2"..This week I present you chords from a Iconic number by the Legendary Music Director Ravi. He was also called as the "Master of Situational Songs". 80% of his composed songs were hits in his days and still considered as Classics today.

    So here we go..

    Intro-
    *Clarinet-(Eb)..(Eb)

    *Guitar Lead1
    E|-------------------------------------------------------------------------------------
    B|--4-4--6-6/8---8-8-11-8-4-6----------------------------------------------------
    G|----------------------------------------------8h9h10--8-10-12-8-5-10\8------
    D|------------------------------------8-8-10-----------------------------------------
    A|---------------------------------------------------------------------------------------
    E|---------------------------------------------------------------------------------------

    *Guitar Lead2
    E|--11-11-13-15--13-15-18-15-11-13----------------13--11-13-15-11-8--11----
    B|---------------------------------------------11-11-13-------------------------------------
    G|---------------------------------------------------------------------------------------------
    D|--------------------------------------------------------------------------------------------
    A|--------------------------------------------------------------------------------------------
    E|--------------------------------------------------------------------------------------------

    Mukhra:
    {Aage (Eb)bhi..(EbM7)..jaane na (Cm)tu..(Eb/G)..
    ..pichhe (Cm)bhi..(Eb)..jaane na (Fm)tu..(Bb7)..
    ..jo bhi (Eb)hai..(Bb)bas yahin ek (Eb)pal hai}-[2 times]

    Aage (Eb)bhi..(EbM7)..jaane na (Cm)tu..(Eb)

    Interlude-
    *Strings Ensemble-(Eb)..(Fm)..(Eb)..(Fm)..(Eb)..(Bb)..(Bb7)..(Bb7)..(Eb)

    *Guitar Lead
    E|------------------------------------------------------------------------------------------
    B|-------------------------------------------------------------13--15-16-18-16------
    G|---------7-8-10-10/12--15-12-8--12/13--17-13-8-------------------------------
    D|--8-10----------------------------------------------------------------------------------
    A|------------------------------------------------------------------------------------------
    E|------------------------------------------------------------------------------------------

    *Mandolin Lead(standard GDAE tuning)
    E|---15-13-11---------------------13-15-11-----------------------------
    A|---------------15-13-15-13-10---------------------------------------
    D|----------------------------------------------------------------------
    G|----------------------------------------------------------------------

    Antra:
    Anjaane (Eb)saayon ka..raahon mey dera hai..
    ..andekhi (G#)baahon ne..hum sabko (Eb)ghera hai

    Yeh pal u(Eb)jalaa hai..baaki andhera hai..
    ..yeh pal ga(G#)waana naa..yeh pal hi (Eb)tera hai

    Jeene(Eb)waale..(Cm)soch (G#)le..(Eb)yahin waqt (Bb)hai karle poori aar(Eb)zoo..

    Aage (Eb)bhi..(EbM7)..jaane na (Cm)tu..(Eb/G)..
    ..pichhe (Cm)bhi..(Eb)..jaane na (Fm)tu..(Bb7)..
    ..jo bhi (Eb)hai..(Bb)bas yahin ek (Eb)pal hai

    rest is same


    jimihndrx

    [Total songs covered in IGT-227 songs*]
    [Languages covered- Hindi,Tamil, English, Punjabi & Bengali]
    [Active Since- April 2012]
    (*-Till this post)
     

    Attached Files:

    Last edited: Apr 24, 2017
    Super-Admin likes this.
  2. raga2303

    raga2303 Member

    I liked it more than my version.. I used to play Eb Gb Cm but this combination is working better
     
  3. jimihndrx

    jimihndrx Guitar Hero

    Thankx Raga..glad that you liked it.
     
  4. raga2303

    raga2303 Member

    Cant add to your reputation as IGT wants me to give reps to more people apart from you... These days I am giving reps to you only :)...
     
  5. jimihndrx

    jimihndrx Guitar Hero

    . No probz at all..ur comment was some sort of reps for me.
     

Share This Page