. : Zinda Hoon Tabs By me : .

Discussion in 'Pakistani Guitar Tabs - Submit or Request' started by faiqrock, Jan 20, 2006.

?

Great!!!!!!!!

  1. YES....Reps 4 u

    100.0%
  2. NO :-(

    0 vote(s)
    0.0%
  1. faiqrock

    faiqrock XaiQ

    Hey guys :rock:
    heres the tabs of my 1 of fv songs Zinda hoon so plz comments n Repsss :nw: :eek:: :rock:
    Hey guys Chk out my New Tabs of ZINDA
    plz comments n Reps .........
    Code:
    For better view copy tht by ctrl+c and paste it on notepad 
    Intro
    e|---------------------------------------------------------|
    b|---------11--------------------11------------------------| 
    g|--7-8-10-----------10----7-8-10-----------10-------------|
    d|------------7-8-10-----------------7-8-10----------------|
    
    e|--------------------------------------------------------------|
    b|---------11------------------------11-------------------------| 
    g|--7-8-10----8---------10----7-8-10----8------------10---------|
    d|--------------7-8-10-----8----------------7-8-10------8-------|< Repeat this 1 again
    
    
    e|-----------------------------|
    b|-----------------------------| 
    g|-10-9-10-9--5-5-7-----10-9-10-9--5-5-7----5-3---|
    d|----------------------------------------------|
      yeh hai meri kahani   khamosh zindganiiii
    
    
    e|-----------------------------|
    b|-----------------------------| 
    g|--------------7-5-----------------------------|
    d|--7-10-7-10-7------------7-10-7-7-7-5---------------------|
    sannata keh raha hai      kyon zulm seh raha hai
    
    
    e|-----------------------------|
    b|-----------------------------| 
    g|-10-9-10-9--5-5-7-----10-9-10s12-10-9---|
    d|--------------------------------------12--10-8-----|
      ik dastan purani    tanhayi ki zubani
    
    e|-----------------------------|
    b|-----------------------------| 
    g|--------------7-9-----------------------------|
    d|--7-10-7-10-7------------7-10-7-7-7-5---------------------|
    har zakhm khil raha hai    kuch mujh sey keh raha hai
    
    e|-----------------------------|
    b|-8-10-8-10-8-10-11---11-11-11-10-10-8-6-6-5-8-----------------| 
    g|-------------------------------------------|
    d|-----------------------------------|
      chubhte kaante yaado ke   daman se chunta hoon.......
    
    e|-----------------------------|
    b|-10-8-10-8-10-11---11-11-11-10-10-8-6-6-5-8-----------------| 
    g|-------------------------------------------|
    d|-----------------------------------|
      girti deewaro ke aanchal mein .......zinda hoon
    
    e|-----------------------------|
    b|-----------------------------| 
    g|-10-9-10-9--5-5-7---------9-10-9--5-5-7---|
    d|------------------------------------------|
      bas yeh hai meri kahani   Benishan Nishani
    
    e|-----------------------------|
    b|-----------------------------| 
    g|----------------------------------7-5-------|
    d|-9-12-9-9-7-10-------7-10-7-10-7--------------|
    ak dar beh raha hai    kuch mujh sey keh raha hai
    
    e|-----------------------------|
    b|-8-10-8-10-8-10-11----13s15-11-10-6-5-8-----------| 
    g|-------------------------------------------|
    d|-----------------------------------|
      chubhte kaante yaado ke   daman se chunta hoon.......
    
    e|-----------------------------|
    b|-13-13-13-13s15-11---11-10-13-13s6-5-8----| 
    g|-------------------------------------------|
    d|-----------------------------------|
      girti deewaro ke aanchal mein .......zinda hoon
    
    
    SOLO by ayad(http://www.indianguitartabs.com/showthread.php?p=203062#post203062)
    
    G-----------10-10-8-7-5-5-7-8-8s10-8-7-5-5h7-7-5h7-7-5-3-2
    D--5---7-8--------------------------------------------------------------
     
    G-----------10-10-12-13-13-12-12-12-12h13-15-15-15-------------------------------14-15-14--
    D--5---7-8-------------------------------------------------------13--13-13-12-12
    
    
    
    e|-----------------------------|
    b|------------15-13-11-10-11---------------| 
    g|-12--14-15-----------------------13-15-16-15-11-11-10h13-------|
    d|----------------------------------------------|
    ab na.....koi paas hai             phir bhi ehsaas hai
    
    e|-----------------------------|
    b|------------15-13-11-10-11---------------| 
    g|-12--14-15-----------------------13-15-16-15-11-11-10h13-------|
    d|----------------------------------------------|
    dehaiiyon me ulzi padi             jeene ki ek aaas hai.......
    
    
    e|-----------------------------|
    b|-13-15-16----16-16-13-15------------------| 
    g|-------------------------------19-18h19-18---14-14-17-15-14-12-|
    d|----------------------------------------------|
    yaado ka jangal yeh dil          kaanto se jalthal yeh dil
    
    
    e|-----------------------------|
    b|-8-10-8-10-13-10-11-------13s15-11-10-6-5-8-----------| 
    g|------------------------------------------|
    d|-----------------------------------|
    chubhte kaante yaado ke     daman se chunta hoon.......
    
    e|-----------------------------|
    b|-13-13-13-13s15-11---11-10-13-13s6-5-8----| 
    g|-------------------------------------------|
    d|-----------------------------------|
      girti deewaro ke aanchal mein .......zinda hoon
    
    _________________________END_______________________________
     
  2. nabzy

    nabzy New Member

    awesome man!...love this song, love the tabs...keep it up!
     
  3. faiqrock

    faiqrock XaiQ

    thnxxx Nabzy....but my reps:eek::
    if u dun know how 2 give reps thn see the picture in attachment

    And 50 views no reply :*( :*(
     
  4. .:SpY_GaMe:.

    .:SpY_GaMe:. New Member

    ^^ u forgot to tell him to choose the i disapprove option then submit lmao

    nice version .....
     
  5. .:SpY_GaMe:.

    .:SpY_GaMe:. New Member

    sorry cant give u reps have to spread more....
     
  6. faiqrock

    faiqrock XaiQ

    NOt Disaproveeeeeeeeeeeeeeeeeeeeeeeeeeeeeeeee
    lol
    thnx spy for comments:p:
    no prob abt reps bro tc bye
     
  7. Lahori_rocker

    Lahori_rocker Guitar God left IGT

    yaar maza nai aya faiq better luck next time lolzzz
     
  8. faiqrock

    faiqrock XaiQ

    :|:|:|:|
    ok:eek::
     
  9. nabzy

    nabzy New Member

    sorry faiqrock...forgot to give u reps...have done so now...
     
  10. faiqrock

    faiqrock XaiQ

    thnx buddy..;)
     

Share This Page