zero - psp12 tab

Discussion in 'English Guitar Tabs - Submit or Request' started by rocking_devil, Apr 14, 2005.

  1. rocking_devil

    rocking_devil Banned

    hey guys,
    this is zero's psp12.a really crappy song which puts the crowd for some reason on its knees!

    INTRO:<there are some bass lines in the start.then we have this tiny fills that are played 2 times
    to start with the verses.>

    i bassically think its a clean intro without distortions.
    |--8-8---6-6----4-4---6-6--
    |-6-----6-----2------4-----
    |---------------------------
    |--------------------------
    |--------------------------
    |-------------------------- x 2

    VERSE:<the verses are sung with the intro being played 4 times>

    if i had a choice to make it all right
    (make it all right)
    if i had the time to wait here all night
    (wait here all night)
    if i had my way, then i wouldnt knew you will say
    but i know i have to stayyyyyyyyyyyyyyyy
    whah whah whah yeah

    CHORUS:<use distortion>
    tere maa x 24

    |-------------------------------------------------------------------
    |-------------------------------------------------------------------
    |-------------------------------------------------------------------
    |-3-3-3-3-3-3-3-3-3-3-3-3>6-6-6>8-8-8>9-9-9>8-8-8>6-6-6>3-3-3-3-3-3-
    |-3-3-3-3-3-3-3-3-3-3-3-3>6-6-6>8-8-8>9-9-9>8-8-8>6-6-6>3-3-3-3-3-3-
    |-1-1-1-1-1-1-1-1-1-1-1-1>4-4-4>6-6-6>7-7-7>6-6-6>4-4-4>1-1-1-1-1-1-
    ^x 2

    verse:<play da the same intro thing 6 times>
    wen playing the 3rd time the verse kicks in::

    there were times when i made it all right
    (made it all right)
    there were places where i have stayed here all night
    <stayed here all night>
    there were reasons why, i let all this time go by
    now im waiting here toniiiiiiiiiiiight
    whah whah whah yeah

    chorus:<same ol' thing again>

    solo:
    |-----------------------------------14^------14----
    |-----------------------------13-16----16-13-------
    |----------13---13-15^-13-15----------------------
    |----13-15---15-----------------------------------
    |-15----------------------------------------------
    |-------------------------------------------------

    |----14-17-19-17--16-17-16-14-16-14-12-14---------
    |-13----------------------------------------13~~----
    |-------------------------------------------------
    |-------------------------------------------------
    |-------------------------------------------------
    |-------------------------------------------------

    |-------------------------------------------------
    |------------------------------------------16-18-16-18--
    |-16^-17^-17^-17^-17^-17^-17^-----17--------------
    |----------------------------------15------------------
    |-------------------------------------------------
    |-------------------------------------------------

    |----14-----------14------------------------------
    |-16-------15-16^----16-16-15---------------------
    |-------17---------------------17-15-17-15-13-------
    |----------------------------------------------15----
    |-------------------------------------------------
    |-------------------------------------------------

    |-------------------------------------------------
    |-----------------------18--18----------------------
    |-13--------------13-17--17------------------------
    |---15-13---13-15---------------------------------
    |---------15--------------------------------------
    |-------------------------------------------------

    interlude:<he whispers something which i havent figured out yet>
    and another guy too singing something i dunno.
    but heres how the guitar goes::

    |-8---9---6---4---8---9---11-14-9-8---------------
    |-6---6---6---6---6---6---9-----------------------
    |-------------------------------------------------
    |-------------------------------------------------
    |-------------------------------------------------
    |-------------------------------------------------


    solo 2::<the solo isnt so accuarte.gotta listen and time it well
    to get it right.>

    |-17^-------------17------------------------------
    |----(16)-20^-16----16-14-12----------------19-14-
    |-----------------------------15-13--13--0-20-------
    |----------------------------------16----13----------
    |-------------------------------------------------
    |-------------------------------------------------

    |-------------------------------------------------
    |----14-------------14-----------------------------
    |-17---17-14--14-17----12-------------------------
    |-------------------------11-11-11-11----11-11----
    |-------------------------------------14----------
    |-------------------------------------------------

    |-------------------------------------------------
    |----12-14-16-14-12---12-14-16-14-12--12-14-16-14-12-
    |-14---------------14---------------14------------
    |-------------------------------------------------
    |-------------------------------------------------
    |-------------------------------------------------

    |------------------------------------14-17--------
    |----12-14-16-14-12----12-16-14-16--------------
    |-14-----------------14---------------------------
    |-----------------------------------------------
    |-----------------------------------------------
    |-----------------------------------------------
    <thats all i can get now.i cant tab it out further coz i need to change my strings.>

    thats all i got for now!keep looking coz' i'll be posting away lucy too!

    bye and :rockon:
     
  2. guitar blue_guy

    guitar blue_guy New Member

    here r d whispers

    "the time bites u to time, i cannot go away
    the time by tonight now, i m just here to stay"

    "y cud i cant be so .........i dont know
    y i did not tell u where now m lost 4"


    i cudnt figure out dat word which i left blank.....so help ur self
     
  3. dhruv990

    dhruv990 New Member

    dude u got the chorus wrong.
    "whah whah whah yeah" is actually "I I I I am"
    chorus:
    Standing by x10 then by stay
     

Share This Page