Zara si dil mein de jaga tu: Film Jannat

Discussion in 'Hindi Guitar Tabs - Submit or Request' started by kaylash, Aug 7, 2008.

  1. kaylash

    kaylash Member

    My version of it. Please check it out. Any corrections are welcome.
    Thank you

    kaylash
    ===================================================

    «Zara Si Dil Mein De Jagah Tu »

    VOICE + GUITAR (Yehhhh…): [Bm9 Em Bm/F# GM7] (X2)
    2 2 2 2

    MUSIC : Bm F#m Em GM7 A Bm F#m
    2 2 4 2 2 2 2
    Bm Bm/F# GM7 Em GM7 A Bm (Drum Fill-in + bass grove on 3rd beat)
    2 1 1 4 2 2 4

    Bm
    2

    GM7 Em GM7
    Zara Si Dil Mein De Jagah Tu
    A Bm
    Zara Sa Apna Le Bana
    GM7 Em GM7
    Zara Sa Khwabon Mein Saja Tu
    A Bm
    Zara Sa Yaadhon Mein Basa

    Em
    Mein Chahun Tujhko
    F#m GM7 A
    Meri Jaan Bepanah
    Em
    Fida Hoon Tujhpe
    A Bm
    Meri Jaan Bepanah

    [D A Bm GM7] (X4)
    2 2 2 2
    Wooooo Hhhhooo Ooohhhh Hooo…
    Bm
    2
    GM7 Em GM7
    Zara Si Dil Mein De Jagah Tu
    A Bm
    Zara Sa Apna Le Bana
    GM7 Em GM7
    Zara Sa Khwabon Mein Saja Tu
    A Bm
    Zara Sa Yaadhon Mein Basa

    INTERLUDE : GUITAR (LEAD GUITAR ONLY)[Bm A G F#m]
    4 4 4 4
    ---------------------------------------------------------------------------
    -----0-h-3-----------2—2-h-3-p-2-------------------------------------------
    ------------------4-------------2-----2------------------------------------
    ------------4--4-------------------4---------------------------------------
    ---------------------------------------------------------------------------
    ---------------------------------------------------------------------------

    ------5--5-h-7-p-5--3--2-h-3-p-2-------------------------------------------
    ------------------------------5--3--2--3-----------------------------------
    ---------------------------------------------------------------------------
    ---------------------------------------------------------------------------
    ---------------------------------------------------------------------------
    ---------------------------------------------------------------------------


    ------3-s-5--7--5--3--2----------------------------------------------------
    -------------------------5--3-p-2------------------------------------------
    ---------------------------------------------------------------------------
    ---------------------------------------------------------------------------
    ---------------------------------------------------------------------------
    ---------------------------------------------------------------------------

    INTERLUDE : FLUTE [Bm Em Bm]
    4 2 2
    «Zara Si Dil Mein De Jagah Tu »
    (Page2of2)

    [CHORUS + VOCAL : D (OR D A G A D A D A G A)]
    32 4 4 2 2 2 2 4 4 2 6
    D
    Mein Tere Mein Tere
    A
    Kadmoon Mein Rakh Du Yeh Jahan
    G A
    Mera Ishq Deewangi
    D A
    Ohhhhoo..
    D
    Hai Nahi Hai Nahi
    A
    Aashiq Koi Mujhsa Tera
    G A
    Tu Mere Liye Bandagi

    Em
    Mein Chahun Tujhko
    F#m GM7 A
    Meri Jaan Bepanah
    G A
    Fida Hoon Tujhpe
    Bm
    Meri Jaan Bepanah

    [D A Bm GM7] (X4)
    2 2 2 2
    Wooooo Hhhhooo Ooohhhh Hooo…

    CHORUS + VOICE : Bm Bm/F# G A Bm Bm/F# Em A
    2 2 2 2 2 2 2 2
    D C#m7b5 CM7 G
    2 2 2 2
    D C#m7b5 Em A
    2 2 2 2


    CHORUS + VOCAL : D (OR D A G A D A D A G A)
    32 4 4 2 2 2 2 4 4 2 6
    D
    Keh Bhi De Keh Bhi De
    A
    Dil Mein Tere Jo Hai Chupa
    G A D A
    Kwahish Jo Hai Teri
    D
    Rakh Nahi Rakh Nahi
    A
    Parda Koi Mujhse Aye Jaan
    G A
    Kar Le Tu Mera Yakeen

    Em
    Mein Chahun Tujhko
    F#m GM7 A
    Meri Jaan Bepanah
    G
    Fida Hoon Tujhpe
    A Bm
    Meri Jaan Bepanah

    [D A Bm GM7] (X7)
    2 2 2 2
    D A Bm
    2 2 8
    Wooooo Hhhhooo Ooohhhh Hooo…
     
  2. jeyaramabalan

    jeyaramabalan New Member

    Well done sir.. Its really good... Could you please post Tuhse naraz nahi song as well?
     
  3. Nice Work Man.....
     
  4. Bhaskarb

    Bhaskarb New Member

    Great Post

    This is an amazing site with loads of knowledge. Thanks buddies,
     
  5. jimihndrx

    jimihndrx Guitar Hero

    This song is not simple as it seems..here are the correct chords:

    Verse:
    (Bm)Zara Si (F#m)dil Mein de ja(Em)gah Tu
    (G)Zara Sa (A)apna le ba(Bm)na..(F#m)

    (Bm)Zara Sa (F#m)khwabon Mein sa(Em)ja Tu
    (G)Zara Sa (A)yaadon Mein ba(Bm)sa..(F#m)

    Main Chahun (Em)Tujhko Me(A)ri Jaan bepa(Bm)nah..
    ..Fida Hoon (G)Tujhpe Me(A)ri Jaan bepa(Bm)nah

    Chorus:
    {Ho Oo..(D)Oo Oo (A)Oo Oo..(Bm)Oo Oo..(A)Oo Oo..Ho Oo..(D)Ho Oo..(A)Oo Oo..(Bm)Oo Oo..(G)Oo Oo}-[2 times]

    Bridge:
    (D)Main Tere, Main Tere Kadmon Mein (A)Rakh Du Yeh Jahan Mera (G)Ishq Dewan(A)gi..(G)Ho..(A)Oo

    (D)Hai Nahi, Hai Nahi Aashiq Ko(A)yi Mujhsa Tera Tu Me(G)re Liye banda(A)gi..(G)..(A)

    rest is same


    jimihndrx
     
    Last edited: Apr 22, 2017

Share This Page