you and i - hutch song(complete chords and finger pick version)

Discussion in 'Hindi Guitar Tabs - Submit or Request' started by satan_4_infinit, Jul 17, 2007.

  1. satan_4_infinit

    satan_4_infinit New Member

    you and i - hutch song
    ----------------------
    great song to sing .... my best wishes to Rupert Fernandes the original composer of the song..Am looking forward to more of his music...

    this is my take on the song and hope u guys like it...

    Chord used
    654321
    Gadd5 [320033]
    Cadd9 [032033]
    CMaj [032010]
    DMaj [000232]
    Gm7 [002222] or [353333]
    Em [022000]
    Am7 [020200]

    Gadd5 Cadd9 Gadd5
    you and I....
    CMaj Gadd5
    in this beautiful world..
    Gadd5 Cadd9 Gadd5
    green grass blue skies..
    CMaj Gadd5
    in this beautiful world..
    Em Am7
    you ...and... i
    Em Am7
    winding lanes as streams go by...
    Em Am7
    hunnn unhun haaaannnn
    Gm7 D
    [here chord changes but no lines sung]

    repest again from you and i....

    ------------------------------------

    for the fingerpick version u can use this but this also is my take to the song so dont think it to be the exact same

    E--------------------------------------
    B-----0---3--------3--0---3-0--3-------
    G-------0--------0------0-----0--------
    D--------------------------------------
    A-----------2-3-------2----------------
    E-----3---------------------3----------

    you and i

    E--------------------------------------
    B-----0---3--------3--0---3-0--3-------
    G-------0--------0------0-----0--------
    D--------------------------------------
    A-----------2-3-------2----------------
    E-----3---------------------3----------

    in this beautiful world..

    E--------------------------------------
    B-----0---3--------3--0---3-0--3-------
    G-------0--------0------0-----0--------
    D--------------------------------------
    A-----------2-3-------2----------------
    E-----3---------------------3----------

    green grass , blue skies

    E--------------------------------------
    B-----0---3--------3--0---3-0--3-------
    G-------0--------0------0-----0--------
    D--------------------------------------
    A-----------2-3-------2----------------
    E-----3---------------------3----------

    in this beautiful world..

    E------------------|-------------
    B-----0----0---0-0-|-2----2------
    G-------0----0-----|---0----0----
    D---------2----2-2-|-----2----2--
    A-----2------------|-0-----------
    E------------------|-------------

    you and i...
    E------------------|-------------
    B-----0----0---0-0-|-2----2------
    G-------0----0-----|---0----0----
    D---------2----2-2-|-----2----2--
    A-----2------------|-0-----------
    E------------------|-------------

    winding lanes as streams go by
    E------------------|------1------
    B-----0----0---0-0-|-2----------
    G-------0----0-----|---0----0----
    D---------2----2-2-|-----2----2--
    A-----2------------|-0-----------
    E------------------|-------------

    hunnnn aan hannnnnnn

    E------------2-2----2----2--|-------0-2--0--2
    B----------2-----2----2-----|-----3----3---2-
    G--------2---------2----2---|---2-------2---2
    D------2--------------------|-0--------------
    A----0----------------------|----------------
    E--0------------------------|----------------

    [no lines sung but music plays]

    again repeat from you and i if u wish...


    happy guiatring...

    do comment as you visit...
     

    Attached Files:

  2. hrattan

    hrattan New Member

    hey thx so much for this..i love this song too..

    can u record and attach the way u've played this..would be great help
     
  3. theghost

    theghost New Member

    thnaksa lot
     
  4. satan_4_infinit

    satan_4_infinit New Member

    sample strumming and fingerpicking pattern

    thank u guys for ur reply...am posting a sample track of the strumming i use and the fingerpick pattern(my 3rd string is making a phau phau sound)so plz neglect it while listening to the fingerpick section...
    audio has been recorded through a mike..so kindly bear
    here's the link...
    http://rapidshare.com/files/43554590/u_n_i-chord___fingerpick.mp3.html
     
  5. hrattan

    hrattan New Member


    Thanks a ton! liked it!! :)
     
  6. satan_4_infinit

    satan_4_infinit New Member

    @hrattan...thanks 4 ur comment...cud have done a lot better if i had my new strings with me .... neways u keep guitarin n njoy life
     
  7. arparwan

    arparwan New Member

    hey the recordimg was poor or else it would have been a good rendition.......
    and have you changed the tune a bit?
     
  8. hrattan

    hrattan New Member

    i tried this with a slightly different pattern. ..have uploaded the song on my band page - http://www.soundclick.com/hostelsingers
     
  9. rijul

    rijul New Member

    the song

    hey guys, where can i get the whole hutch song frm?
     
  10. satan_4_infinit

    satan_4_infinit New Member

  11. bjr

    bjr Lady of the Evening

  12. adwait

    adwait New Member

    awesome man!
    i was dyin 2 play this 1!
    thanx a lot!
     
  13. satan_4_infinit

    satan_4_infinit New Member

    @adwait ..all the best...hope u njoy playin...
    @bjr...liked ur work 2
     
  14. satan_4_infinit

    satan_4_infinit New Member

    @adwait whr u from>
     
  15. ujjwol shakya

    ujjwol shakya New Member

    yaa its a very nice job and i love it too much thanks a lot for this
     
  16. apokalypse43

    apokalypse43 New Member

    tooo gud man
     
  17. mapsym019

    mapsym019 New Member

    Needed it badly thankssssssssssssssssssssssss a lot
     
  18. dr.shahina

    dr.shahina New Member

    hi all.it was always a dream to play the guitar.ever found time to do so.just learning the basics of music now..wish me luck
     

Share This Page