"Yeah dosti hum nahi todenge" Guitar tabs

Discussion in 'Hindi Guitar Tabs - Submit or Request' started by dev_go_hel, Aug 4, 2009.

  1. dev_go_hel

    dev_go_hel New Member

    Hi ...

    Here you will find simple guitar tabs for
    "Yeah dosti hum nahi todenge..."

    B----9-7-5-5p0------
    E-------------------
    yeah dosti.....

    B---0-12-10---------
    E-------------------
    hum nahi......

    B----9-7-7s5--------
    E-------------------
    Todenge.....

    B----9-9-9h10-------
    E-------------------
    Todenge....

    B----12--10-7-------
    E-------------------
    Dum magar..

    B--7-7-7h9-9-9------
    E-------------------
    Tera saath na....

    B----7-5-5----------
    E-------------------
    chodenge....

    Happy playing
     

Share This Page