Yaqeen - Try this...u'll like it. Trust me

Discussion in 'Pakistani Guitar Tabs - Submit or Request' started by Dhruvin, Aug 20, 2006.

  1. Dhruvin

    Dhruvin New Member

    Hey Guys,
    this is my first post...so be easy. All corrections are welcome but i did this by ear. and i think that the chords i provided sorta get rid of the controversey of which chords are rite with this song. Hope u Enjoy!!
    Oh and btw, in the video, he uses G maj instead of A in the first stanza...A jus sounds a hell lot better, since G and G6 sound very similar.

    jus for people who dunt know wht G6 chord is: 0-2-2-0-3-3

    D G6
    Aaz Dil Dukha Hai
    A D
    Tum Yaad Aaye
    D G6
    Anjaane Log Hai
    A D
    Apane Kahaan Dhoond Paaye

    D
    Jaagey Hai
    G6
    Soye Nahin
    G
    Aisi Hai Meri Yeh
    A G D
    Bechaini

    D
    Din Bhi Wahin
    G6
    Raate Wahin
    G
    Saanson Mein Saansein
    A G D
    Hai Nahin

    D
    Shyaamein Ab
    G6
    Dhalti Nahin
    G
    Aanchal Tera
    A G D
    Simat Jaaye

    D
    Aap Yahaan
    G6
    Hamesha Rahe
    G
    Doori Rahe
    A G D
    Na Ho Faaslein

    D
    Jaagey Hai
    G6
    Soye Nahin
    G
    Aisi Hai Meri Yeh
    A G D
    Bechaini

    D
    Din Bhi Wahin
    G6
    Raate Wahin
    G
    Saanson Mein Saansein
    A G D
    Hai Nahin

    D G6
    Ab Agar Tu Mileto
    A D
    Itnaa Yaqeen Hai
    D G6
    Huss Denge Humto
    A A G D
    Ronaa Nahin Hai

    I'm not sure about the last line. but then again, it fits in perfectly if played with the right strumming.

    Please Reply ASAP too lemme kno wht u think.
     
  2. Aka Oz

    Aka Oz /\K/\ - Ozy

    good wrk!!!!!!!
     
  3. Dhruvin

    Dhruvin New Member

    thnx oz!! come on guys...i need more replies:think:
     
  4. Johny Bravo

    Johny Bravo The Boy Genius!

    Hey Oz, u drunk or something? Buddy good go, but needs some cleaning up. Firstly the G6 u said, is actually Em7. The chords are correct, (Em7 being the secret ingredient, good work if u found it by ear) but are a bit misplaced. Em7 is used only at "Aisi hai meri yeh baichaini". Try it this way. Replace the G6 with regular G (3 2 0 0 3 3) in ur intro. Do some more refining
     
  5. Nice Work man
     
  6. Dhruvin

    Dhruvin New Member

    hey thnx johny bravo...it does work better! oo and btw about the g6 thing...i saw this one site where it says that it can be either called Em7 or G6...i believe its http://all-guitar-chords.com/chord_name.php check it out....but thnx though!! ur stuff really did work.
     
  7. Johny Bravo

    Johny Bravo The Boy Genius!

    Thanks Dhurvian, but here on IGT we show gratitude to each other by repping them (Thats the golden star under my nick). And about that chord, I am pretty sure its not "called" G6, even though it appears the same.

    G6 = G B D E

    while

    Em7= E B D G

    And on guitar, we have it as:

    E B E G D G (low to high)

    Even though it has the same notes, the voicing is going to be 4th inversion of G6! I'd rather call it Em7. Em is the relative minor scale of G. So, it kinda works, but in a very twisted way. Rock on, nice effort.
     
  8. MoosA

    MoosA New Member

    Wah About This One ?

    D A
    ----2----2---------0-----0------
    ------3----3--------2------2---
    --2----2-----2----2----2-----2-
    -0--------------2--------------
    -------------------------------
    -------------------------------

    D A
    ----2----2--------0-----0------
    ------3----3--------2------2---
    --2----2-----2----2----2-----2-
    -0--------------2--------------
    -------------------------------
    -------------------------------

    The strum D






    D G
    Aaj dil dukha hai
    A D
    tum yaad ayee
    D G
    anjanay loog hain
    A D
    apnay kahan dhond payain


    D E
    jagay hain soyee nahe
    G A D
    aiseehai meree yeh baychanee
    D E
    din bhee wohi raatien wohi
    G A D
    saansoun main saansain hain nahee


    A D A D G G A D
    hmm hmmmm hmmhmmm hmm hmm hmm hmm hmm hmm hmm



    0-2----0-2-3-5-0------3-2-0-----0--2----------
    -------------------------------------3--------
    ----------------------------------------------
    ----------------------------------------------
    ----------------------------------------------
    ----------------------------------------------



    D E
    shamain abb dhalte nahe
    G A D
    aanchal jo tera simat jayee
    D E
    aap yahan hamesha rahain
    G A D
    duri rahay na hoon faaslay

    A D A D G G A D
    hmm hmmmm hmmhmmm hmm hmm hmm hmm hmm hmm hmm

    A D A D G G A D
    hmm hmmmm hmmhmmm hmm hmm hmm hmm hmm hmm hmm

    SOLO

    D E
    jagay hain soyee nahe
    G A D
    aiseehai meree yeh baychanee
    D E
    din bhee wohi raatien wohi
    G A D
    saansoun main saansain hain nahee


    A D A D G G A D
    hmm hmmmm hmmhmmm hmm hmm hmm hmm hmm hmm hmm

    A D A D G G A D
    hmm hmmmm hmmhmmm hmm hmm hmm hmm hmm hmm hmm




    D E
    abb agar tum milay too
    G A D
    itna yaqeen hai
    D E
    hans dayen gay humto
    G A D
    roona nahe hai
     
  9. rizaaj

    rizaaj Forum Leader

    @moosa avoid reposts.. this one is in the forums like a couple million times now...
     
  10. Johny Bravo

    Johny Bravo The Boy Genius!

    Who was the first idiot who introduced the intro like this:

    Code:
    D A
    ----2----2---------0-----0------
    ------3----3--------2------2---
    --2----2-----2----2----2-----2-
    -0--------------2--------------
    -------------------------------
    -------------------------------
    
    D A
    ----2----2--------0-----0------
    ------3----3--------2------2---
    --2----2-----2----2----2-----2-
    -0--------------2--------------
    -------------------------------
    -------------------------------
    Whats wrong with this one? R u ppl deaf?

    Code:
    ----2----2---------0-----0------
    ------3----3--------3------3---
    --2----2-----2----0----0-----0-  X 2
    -0--------------0--------------
    -------------------------------
    -------------------------------
    U dont even bother to listen what u are playing, just following crappy online tabs!
     

Share This Page