"yakeen"intro and chords

Discussion in 'Pakistani Guitar Tabs - Submit or Request' started by Muz guitarist, Oct 9, 2004.

  1. Muz guitarist

    Muz guitarist New Member

    D A
    ----2----2---------0-----0-------|
    ------3----3--------2------2-----|
    --2----2-----2----2----2-----2---|
    -0--------------2----------------|
    ---------------------------------|
    ---------------------------------|

    D A
    ----2----2--------0-----0------|
    ------3----3--------2------2---|
    --2----2-----2----2----2-----2-|
    -0--------------2--------------|
    -------------------------------|
    -------------------------------|

    The strum D


    D G
    Aaj dil dukha hai
    A D
    tum yaad ayee
    D G
    anjanay loog hain
    A D
    apnay kahan dhond payain


    D E
    jagay hain soyee nahe
    G A D
    aiseehai meree yeh baychanee
    D E
    din bhee wohi raatien wohi
    G A D
    saansoun main saansain hain nahee


    A D A D G G A D
    hmm hmmmm hmmhmmm hmm hmm hmm hmm hmm hmm hmm

    0-2----0-2-3-5-0------3-2-0-----0--2----------|
    -------------------------------------3--------|
    ----------------------------------------------|
    ----------------------------------------------|
    ----------------------------------------------|
    ----------------------------------------------|

    D E
    shamain abb dhalte nahe
    G A D
    aanchal jo tera simat jayee
    D E
    aap yahan hamesha rahain
    G A D
    duri rahay na hoon faaslay

    A D A D G G A D
    hmm hmmmm hmmhmmm hmm hmm hmm hmm hmm hmm hmm

    A D A D G G A D
    hmm hmmmm hmmhmmm hmm hmm hmm hmm hmm hmm hmm

    SOLO

    D E
    jagay hain soyee nahe
    G A D
    aiseehai meree yeh baychanee
    D E
    din bhee wohi raatien wohi
    G A D
    saansoun main saansain hain nahee


    A D A D G G A D
    hmm hmmmm hmmhmmm hmm hmm hmm hmm hmm hmm hmm

    A D A D G G A D
    hmm hmmmm hmmhmmm hmm hmm hmm hmm hmm hmm hmm


    D E
    abb agar tum milay too
    G A D
    itna yaqeen hai
    D E
    hans dayen gay humto
    G A D
    roona nahe hai
     
  2. badullah

    badullah Dark Inside

    already here my man ...... seen it already :cool:
     
  3. moadhia

    moadhia New Member

    Heyy if possible can u tell the strumming pattern for this song.. have a little trouble there.. thaanksss
     
  4. rajujee

    rajujee New Member

    nice work man............its gr8.....yah any one knows the strumming pattern of that song..
     
  5. A4tech

    A4tech New Member

    hello guys.! yarr the strumming pattren for this song is very easy
    this starts from jagay hain soyay nahi ...!
    down,down,down,down,up,down..strum's

    sasoon mein sasain hain nahi
    down,down,down,down ,down,up,down

    then the whole song is on the same pattren
     
  6. DesiPride143

    DesiPride143 BEHAVE!

    nice job dude but i have a little correction to make. the intro actuall goes on kind of like this

    D A4/D
    ----2----2---------0-----0-------|
    ------3----3--------2------2-----|
    --2----2-----2----0----0-----0---|
    -0--------------0----------------|
    ---------------------------------|
    ---------------------------------|

    D A/D
    ----2----2--------0-----0------|
    ------3----3--------2------2---|
    --2----2-----2----0----0-----0-|
    -0--------------0--------------|
    -------------------------------|
    -------------------------------|

    i think this one sounds more accurate. what do u think?
     
  7. badullah

    badullah Dark Inside

    yeah these sound better !
     
  8. guitarmaster

    guitarmaster New Member

    Nice job dudes....can ne1 post 'tere bin, by atif chords????
     
  9. rizaaj

    rizaaj Forum Leader


    search the forum. KL12 has posted in a thread.
     

Share This Page