YAKEEN - Atif Aslam: the complete tab with piano solos :)

Discussion in 'Pakistani Guitar Tabs - Submit or Request' started by ahaider, Sep 4, 2005.

?

How Good was this tab?

Poll closed Jul 1, 2006.
  1. sucks

    50.0%
  2. Pretty good

    40.0%
  3. stop playing guitar

    0 vote(s)
    0.0%
  4. YOU ROCK DUDE!!

    10.0%
  1. ahaider

    ahaider New Member

    YAKEEN - Atif Aslam: the complete tab with piano solos :)

    Song: Yakeen
    Artist: Atif Aslam
    Album: Jal Pari

    Tabbed by: Asad Haider (email me for other songs you want tabbed asadhaiderr@yahoo.ca, will be done if there is time)

    chords used:

    D A G E Bm

    E--0---||--X--||--X--||--X--||--X--||
    B--2---||--X--||--3--||--0--||--3--||
    G--3-- ||--2--||--0--||--1--||--4--||
    D--0-- ||--2--||--0--||--2--||--4--||
    A--0---||--0--||--2--||--2--||--2--||
    E--X-- ||--0--||--3--||--0--||--X--||


    INTRO:

    D G

    E--------2--------2----------------0-------0--------
    B-----------3--------3----------------3-------3-----
    G-----2-------2--------2-------0-------0--------0-- x 2
    D--0--------------------------------------------------
    A------------------------------------------------------
    E-----------------------------3-----------------------

    guitar 1
    E------------------------------------------------------------------------------------------------------
    B-----------3------------0------------3----------0----------3--------0-----------3-------3---2----
    G--------2-----2-----2------------0-----0----0----------2---2---2-----------2-------2------2----
    D-----0-----------0-------------0----------0-----------0--------0----------0-------2--------------
    A--2-------------------------4----------------------- 2-------------------0--------------------------
    E------------------------------------------------------------------------------------------------------

    piano part 1
    E---------------------------------------------
    B---8--7----3--5----8--7--8--10----------
    G---7--7----4--4----7--7--7--7----------- (plays with the intro of guitar 1)
    D---------------------------------------------
    A---------------------------------------------
    E---------------------------------------------


    Verse 1
    Bass part but can play chords over it too D G A D

    Aaj Dil dhuka hay...

    E---------------------------
    B---------------------------
    G---------------------------
    D--------------------------- x 2
    A----5------------5--------
    E--------3----5------------


    D E
    jaagey hein soye nahi

    G A G D
    aisi hai meri ye bechaini

    D E
    din bhi wohi raatein wohi

    G A G D
    sanso mein sansein hein nahi


    D Bm
    hmm hmmmm hmm hmmmm

    G A G D
    hmm hmmm hmmmmmmm hmmm hmmm hmmm


    ** Guitar plays same chords again for solo: D Bm G A G D

    Piano Solo:

    E----------------------------------------------------------------5-------3-------2------0-----2-----
    B--5--7---5--7--8---10------------------------------------------3------3-------3------3-----3---
    G---------------------------7----7--6-----2---4---2-------2-------2-------2------2------2-----2-
    D----------------------------------------------------------0-------------------------------------------
    A------------------------------------------------------------------------------------------------------
    E------------------------------------------------------------------------------------------------------

    E--3---3-------------9---7--10-10------
    B--3---3-------------7---5--7---7-------
    G-------------------------------------------
    D-------------------------------------------
    A-------------------------------------------
    E-------------------------------------------


    D G
    shaamein ab dhalti nahi

    A D
    anchal jo tera simat jaaye

    D G
    aap yahan hamesha rahein

    A D
    duuri rahe na ho fasle


    D Bm
    hmm hmmmm hmm hmmmm

    G A G D
    hmm hmmm hmmmmmmm hmmm hmmm hmmm


    D Bm
    hmm hmmmm hmm hmmmm

    G A G D
    hmm hmmm hmmmmmmm hmmm hmmm hmmm


    Guitar1 plays these chords over the solo: D E G A G D x 2

    Guitar Solo:

    E------------------------------------------------------------------------------
    B-5b-7h5----5--3--5--7~--3h5p3---7--------5b--7h5--------/10--9---
    G---------- 7-------------------------------7---------------7--------------
    D----------------------------------------------7-------------------------------
    A------------------------------------------------------------------------------
    E------------------------------------------------------------------------------

    E--9b--9p7------------------10~-------
    B--------------10---10-------10~-------
    G--------------------------7---------------
    D------------------------------------------
    A-----------------------------------------
    E------------------------------------------

    D E
    jaagey hein soye nahi

    G A G D
    aisi hai meri ye bechaini

    D E
    din bhi wohi raatein wohi

    G A G D
    sanso mein sansein hein nahi


    D Bm
    hmm hmmmm hmm hmmmm

    G A G D
    hmm hmmm hmmmmmmm hmmm hmmm hmmm


    D Bm
    hmm hmmmm hmm hmmmm

    G A G D
    hmm hmmm hmmmmmmm hmmm hmmm hmmm


    D G
    hooo hoooo hoooo hooooo

    A D
    hooo hooo hooooooaaowoah ho hoooo

    D G
    hooo hoooo hoooo hooooo

    A D
    hooo hooo hooooooaaowoah ho hoooo

    D G
    ab ager tum mile to

    A D
    itna ye yaqeen hai

    D G
    hans deinge hum to

    A D (3 strums)
    roona nahi hai

    you can finish off with the slick bass slide

    D----------
    A----------
    E--/10----

    KEY:
    / = slide
    ~ = vibrato
    h = hammer on
    p = pull off


    I hope this one has been helpful, im pretty sure i tabbed it right... great song! enjoy!
     
  2. ahaider

    ahaider New Member

    i tried to fix the positioning of the chords, but it didnt work, damn it, i worked so hard to get the chords just on the right syllable, oh well im sure you guys can figure that much out for sureee! thanks for reading
     
  3. ahaider

    ahaider New Member

    oh i just noticed one more thing in the guitar solo the last two 10s are supposed to be together

    E---10~---
    B---10~---
    G-----------
     
  4. Quadrophenia

    Quadrophenia New Member

    well done..looking good
     
  5. Orange Guitar

    Orange Guitar IGT's ALLROUNDER

    u got chords from net .... solo is also from the net .....and the intro is wrong......!!!!!
     
  6. ahaider

    ahaider New Member

    none of the chords are from the net, the intro is corrected from what was posted online adn the chords that are online do not include the Bm that is actually in the song...the version on here sucked, so i made my own...

    you're not playing the intro right, cause you still need more experience...or maybe your guitar isnt in tune.

    and just for the record....ive never seen anyone post up the piano solo...
     
  7. Lahori_rocker

    Lahori_rocker Guitar God left IGT

    hmmmmmmmmmmmmmm good copy pastin!!!!!!!!!!!!
     
  8. nadish

    nadish Active Member

    yarr Lahori Rocker and Orange Guitar!!! What's the problem with u both???
     
  9. har1s

    har1s <b>Untitled</b>

    orange is ryt...intro is wrong....

    it goes like


    instead of D and G itz D and A

    E--------2--------2--------------------0-------0-----
    B-----------3--------3--------------------2-------2---
    G-----2-------2--------2--------- 2---------2-------2 X 2
    D--0----------------------------2----------------------
    A--------------------------------------------------------
    E--------------------------------------------------------
     
  10. nadish

    nadish Active Member

    Yes Haris, ur intro sounds more gud... coz I've tried them b4...
     
  11. ahaider

    ahaider New Member

    are you sure that its an A cause i tried playing it and it doesnt work at all!
    i got his song right off his website... maybe theres a different version??


    and btw lahori and orange, show me where i could have potentially copied and pasted from..... because i looked for the tabs and all i found were chords and they were in complete, and the solos on other places are different... haha you guys are just makin a fool outta yourselves...
     
  12. Quadrophenia

    Quadrophenia New Member

    ahaider..dont midn them..they like making new ppl feel inferior just coz they have a high rep ... posting crap one line posts which adds to the rep!!!

    like i said before..nice job. and welcome to the forum!
     
  13. Lahori_rocker

    Lahori_rocker Guitar God left IGT

    ahan quadrophenia but check out www.ultimate-guitar.com u will get the same chords nd tabs nd also solos....................
     
  14. Orange Guitar

    Orange Guitar IGT's ALLROUNDER

    ok ok ok ....but play the intro with these chords (xx0323) and (xx0030)....these are the the chords....i can also provide with u with verse and chorus chords.....

    @ahaider: tell me the the code of E??????????? write it!!!!!!!!!!
     
  15. ahaider

    ahaider New Member

    the chords are right and i checked ultimate-guitar too, nobody has this version of this version of the solo, so shhh up with the crap...

    orange guitar: E is (x22100)
     
  16. Spellbinder

    Spellbinder Crescentarian

    they arent gud enough
    __________________
    Its Magic!!!
     

Share This Page