yah kaha aagaye hum (intro tabs+chords)

Discussion in 'Hindi Guitar Tabs - Submit or Request' started by JUDAS_666, Jan 12, 2011.

  1. JUDAS_666

    JUDAS_666 New Member

    E--------------------------------------------------------------------------------------------
    B-7-10-8-7-----7---2-3-5-2h3p2h3p2------2-3-0h2p0h2p0-0-------2-3-0/2------------------------
    G-----------9-7--------------------------2h4----------------------2-4------------4-2-4-2----------------
    D--------------------------------------------------------------------------------------------4-2-0-2/4------
    A--------------------------------------------------------------------------------------------

    E-------------------7h9-7------------
    B--7-6-4---------7--------10---------
    G--7-7-5-2-----7---------------------
    D---------0---7-----------------------

    [barred D plucking]
    Mein aur meri tanhayi
    Aksar yeh batein karte hai......
    Tum hoti to kaisa hota
    tum yeh[C plucking] kehti, tum wih kehti
    tum iss [D plucking]baat pe hairan hoti, tum iss baat pe
    E-8h10-8-------------------------
    B--------10-8-7-------------------
    kitni hasti
    Tum hoto to aisa hota
    tom hoti to [C plucking]waisa hota
    mein aur meri [D plucking] tanhayi
    Akshar yeh baatein karte hai




    Strumming pattern: D_DU_UDU

    [D]X4 [G] [C]X2 [Eb]X4 [D]X4
    ru ru ru ru ru ru,
    [Bb]X4 [D]X4 [F#7]X2 [Bm]X2 [F#7]X4
    Ha ha ha ha ha

    E-10-8-----------------------------------------
    B------11-9-------------------------------------
    G----------11-9-7-5~~--7~~------------------------------
    D-------------------5-----7-----------------------

    [D]Yeh kaha aa ga[G]ye hum
    yu hi[D] saath saath chalte

    (fill)
    G-2-2-2h4-2------------------------
    D------------4-3-2---------------------

    Teri [c]baahon mein hai jaanam
    mere [D] jism jaan pighalte


    [D]Tu badan hai mein hu [G]chaya
    tu na [A]ho to mein ka[D]ha hu
    mujhe pyaar karne [G]wale
    tu ja[A]ha hai mein wa[D]ha hu
    hume [C]milna hi tha humdam
    isi [D]raha bhi nikalke
     
  2. raga2303

    raga2303 Member

    Judas.. fantastic.. I was looking for same for quite some time.. I will try this today..
     
  3. tijusxxx

    tijusxxx New Member

    Thanks for the post
     

Share This Page