Ya Ali - Gangster (2005) Tabs

Discussion in 'Hindi Guitar Tabs - Submit or Request' started by pnainani03, Apr 29, 2006.

  1. pnainani03

    pnainani03 Request and I'll tab

    Hey guys, I’ve been trying to get this song and finally ended tabbing it. This is the first song I’ve ever tabbed so please try and be nice XD.

    Song: Ya Ali
    Movie: Gangster (2005)
    Tabbed By,
    Paras Nainani

    Intro Music
    E---3-(really softly) 3-3-5-7-5-(a bit louder)----------------------
    B----------------------------------------------------------------
    G----------------------------------------------------------------
    D----------------------------------------------------------------
    A----------------------------------------------------------------
    E----------------------------------------------------------------
    E----------------------------------------------------------------

    E---3-3-3-5-7-5---7-5--3-2-0-(complete sound)------------------
    B----------------------------------------------------------------
    G---------------------------------------------------------------- x2
    D----------------------------------------------------------------
    A----------------------------------------------------------------
    E----------------------------------------------------------------
    E----------------------------------------------------------------

    Chorus
    E----------------------------------------------------------------
    B---0-1-5---5-5-3-5-7-5-3-1-0----------------------------------
    G----------------------------------------------------------------
    D----------------------------------------------------------------
    A----------------------------------------------------------------
    E----------------------------------------------------------------
    Ya Ali reham Ali…

    E----------------------------------------------------------------
    B---1/2/3/2/1-0---4/5-7-5---------------------------------------
    G---------------2---------4-4-5/6/7/6/5--2-4--------------------
    D----------------------------------------------------------------
    A----------------------------------------------------------------
    E----------------------------------------------------------------
    Ya Ali, yaar pe qurbaan hai sabhi.

    Will do rest later, please tell me what you think of it. And give me reps, what are they? xD.

    Paras out.
     
  2. pnainani03

    pnainani03 Request and I'll tab

    Must be a bad song or badly tabbed

    Hey guys, 55 views and no replies, must be either a bad song or badly tabbed, at least tell me whats wrong with it?

    Paras out.
     
  3. amit82cse

    amit82cse Silent observeR

    Hey..I love this song. You have tabbed it right.

    Keep it up.
     
  4. pnainani03

    pnainani03 Request and I'll tab

    Wow

    Whoa, amit thanks man

    Paras out.
     
  5. pnainani03

    pnainani03 Request and I'll tab

    More of the song

    Chorus part two
    E----------------------------------------------------------------
    B---0-1-5---5-5-3-5-7-5-3-1-0------------------------------
    G----------------------------------------------------------------
    D----------------------------------------------------------------
    A----------------------------------------------------------------
    E----------------------------------------------------------------
    Ya Ali madat Ali…

    E----------------------0-----------------------------------------
    B---1/2/3/2/1-0---3----1-0---0-1-1-3-----------------------
    G-----------------2---------------------------------------------
    D---------------------------------------------------------------
    A---------------------------------------------------------------
    E----------------------------------------------------------------
    Ya ali yeh meri jaan yeh meri zindagi

    E----------------------------------------------------------------
    B----3-3-5-7-7---7/8/7-5-3-5---3-5-7-5-3-5-3-1----------
    G----------------------------------------------------------------
    D----------------------------------------------------------------
    A----------------------------------------------------------------
    E-----------------------------------------------------------------
    Ishq pe (haan) mita doon luta doon

    E----------0-----------------------------------------------------
    B-----1-3---3-1-0---------------------------------------------
    G----------------------------------------------------------------
    D----------------------------------------------------------------
    A----------------------------------------------------------------
    E-----------------------------------------------------------------
    Main apani khudi

    E----------------------------------------------------------------
    B----3-3-5-7-7---7/8/7-5-3-5---3-5-7-5-3-5-3-1----------
    G----------------------------------------------------------------
    D----------------------------------------------------------------
    A----------------------------------------------------------------
    E-----------------------------------------------------------------
    Yaar pe haan luta doon mita doon

    E----------------------------------------------------------------
    B----1-3-0-1-3-1p0----------------------------------------
    G----------------------------------------------------------------
    D----------------------------------------------------------------
    A----------------------------------------------------------------
    E-----------------------------------------------------------------
    Main yeh hasti

    E----------------------------------------------------------------
    B---0-1-5---5-5-3-5-7-5-3-1-0------------------------------
    G----------------------------------------------------------------
    D----------------------------------------------------------------
    A----------------------------------------------------------------
    E----------------------------------------------------------------
    Ya Ali madat Ali…

    E----------------------0---------------------------------------
    B---1/2/3/2/1-0---3----1-0---0p1--------------------------
    G-----------------2------------------2-2-4---------------------
    D---------------------------------------------------------------
    A---------------------------------------------------------------
    E----------------------------------------------------------------
    Ya ali yeh meri jaan yeh meri zindagi

    E---0-7p5h7—0-7p5h7—0-7p5h12---8-10-5-7---------
    B---------------------------------------------------------------
    G---------------------------------------------------------------
    D---------------------------------------------------------------
    A---------------------------------------------------------------
    E---------------------------------------------------------------
    (Funky music part one)

    E---0-7p5h7—0-7p5h7—0-7p5h7-----3-5-2-0-----------
    B---------------------------------------------------------------
    G---------------------------------------------------------------
    D---------------------------------------------------------------
    A---------------------------------------------------------------
    E---------------------------------------------------------------
    (Funky music part two)

    (And then repeat parts one and two four times)

    Hope you like it, rest coming soon

    Paras out.
     
  6. jitesh2025

    jitesh2025 New Member

    great job dude keep up the good work
     
  7. pnainani03

    pnainani03 Request and I'll tab

    More

    First off Thanks Jitesh, appreciate it.
    Now - back to business

    Verse One

    E---------------------------------------------------------------
    B---8-8-7-5-3-5--8-8-7-5-3-5--7-7-5-1-3-0-3-1-0------
    G---------------------------------------------------------------
    D---------------------------------------------------------------
    A---------------------------------------------------------------
    E---------------------------------------------------------------

    I think thats all there is left, it just repeats itself then. But if there are any queries or you think there is more to it, then I'd be glad to try and Tab it.

    Thanks guys,
    Paras out.
     
  8. pnainani03

    pnainani03 Request and I'll tab

    Guys...

    Please if you like the tabs PLEASE PLEASE PLEASE PLEASE dont just play them, take some time off to reply please, thanks...

    Paras out
     
  9. jal_ep

    jal_ep New Member

    hey great man i love ur reply keep it up and try that who other can't bye bye and take care
    :)
     
  10. Seeksy

    Seeksy New Member

    wow thanx... that's really good...
     
  11. nabzy

    nabzy New Member

    heys! awesome tabs...keep it up!
     
  12. pnainani03

    pnainani03 Request and I'll tab

    thanks

    Thanks so much guys :) appreciate it.

    Paras N.
     
  13. rickkky_rich

    rickkky_rich Banned

    gr8 stuff dude!!!

    hey buddy u've done a really gr8 job...
     
  14. pnainani03

    pnainani03 Request and I'll tab

    thank you rickky. thanks :)

    paras n.
     
  15. rakeshjosh

    rakeshjosh New Member

    gud job

    hiii,nice work dude ,the tabs are awesome :)

    keep am comin
     
  16. soh x nah

    soh x nah New Member

    hey, ur tabs look great. This is one of my favorites and cant wait to play it. THANKS
     
  17. pnainani03

    pnainani03 Request and I'll tab

    thanks rakesh
     
  18. Bandbaaja

    Bandbaaja Pronounced Band Baaaa Ja

  19. pnainani03

    pnainani03 Request and I'll tab

    thanks soh x nah, and i will check out your chords but i cant play them sorry bandbaaja.

    paras n.
     
  20. metalsriks

    metalsriks New Member

    grrrreat job da....thanksss.
     

Share This Page