White Stripes - Seven Nation Army

Discussion in 'English Guitar Tabs - Submit or Request' started by rabi_sultan, Jan 4, 2004.

  1. rabi_sultan

    rabi_sultan <Bulla Ki Jana>

    simple song to play but you need a slide.
    also the tempo isnt correct on the tab just the notes.

    Code:
    [FONT=courier new]
    E-|-----------------------------|
    B-|-----------------------------|
    G-|-----------------------------|
    D-|-----------------------------|
    A-|--7---7---10---7---5---3---2-|
    E-|-----------------------------|
    [/font]

    for the chorus parts this is changed, switch on the distortion and then play
    Code:
    [FONT=courier new]
    E-|------------------------------|
    B-|---7---7---10---7---5---3---2-|
    G-|---7---7---10---7---5---3---2-|
    D-|---7---7---10---7---5---3---2-|
    A-|---7---7---10---7---5---3---2-|
    E-|---7---7---10---7---5---3---2-|
    
    E-|--------------------------------------|
    B-|---7---7---10---7---5---3---5---3---2-|
    G-|---7---7---10---7---5---3---5---3---2-|
    D-|---7---7---10---7---5---3---5---3---2-|
    A-|---7---7---10---7---5---3---5---3---2-|
    E-|---7---7---10---7---5---3---5---3---2-|
    
    [/FONT]

    Solo, this might be wrong slightly but most of its right :)
    the r is ring/rest.
    Code:
    [FONT=courier new]
    E-|--------------------------------------|
    B-|------------------0-0-0-0-0-0-0-0-----|
    G-|------------------0-0-0-0-0-0-0-0-----|
    D-|------------------0-0-0-0-0-0-0-0-----|
    A-|-5-5-5-5-5-5-5-5--0-0-0-0-0-0-0-0-----|
    E-|-3-3-3-3-3-3-3-3--0-0-0-0-0-0-0-0-----|
    
    E-|-----------------------------|
    B-|-----------------------------|
    G-|-----------------10--9r------|
    D-|-12-12-12-12-12----------12--|
    A-|-------------------------12--|
    E-|-------------------------12--|
    
    E-|-----------------------------------------|
    B-|-----------------------------------------|
    G-|-----------------10--12--10--10--9r------|
    D-|-12-12-12-12-12----------------------12--|
    A-|-------------------------------------12--|
    E-|-------------------------------------12--|
    
    E-|-----------------------------|
    B-|-----------------------------|
    G-|-----------------10--9r------|
    D-|-12-12-12-12-12----------12--|
    A-|-------------------------12--|
    E-|-------------------------12--|
    
    E-|-----------------------------------------|
    B-|-----------------------------------------|
    G-|-----------------10--12--10--10--9r------|
    D-|-12-12-12-12-12----------------------12--|
    A-|-------------------------------------12--|
    E-|-------------------------------------12--|
    
    E-|-12-12-15-12-12-12-15-14r--|
    B-|---------------------------|
    G-|---------------------------|
    D-|---------------------------|
    A-|---------------------------|
    E-|---------------------------|
    
    E-|-12-12-15-12-12-12-17-15-17-15-14r--|
    B-|------------------------------------|
    G-|------------------------------------|
    D-|------------------------------------|
    A-|------------------------------------|
    E-|------------------------------------|
    
    E-|-12-12-15-12-12-12-15-14r--|
    B-|---------------------------|
    G-|---------------------------|
    D-|---------------------------|
    A-|---------------------------|
    E-|---------------------------|
    
    E-|-12-12-15-12-12-12-15-14----------------|
    B-|-----------------------------12-11-10---|
    G-|----------------------------------------|
    D-|----------------------------------------|
    A-|----------------------------------------|
    E-|----------------------------------------|
    
    
    E-|--------------------------------------------|
    B-|-7-7-7-7-7-7-7-7-9-9-9-9-9-9-9-9------------|
    G-|-7-7-7-7-7-7-7-7-9-9-9-9-9-9-9-9------------|
    D-|-7-7-7-7-7-7-7-7-9-9-9-9-9-9-9-9------------|
    A-|----------------------------------0r--0r----|
    E-|--------------------------------------------|
    
    [/FONT]


    EDIT :mad: :cen: :mad: IT STILL DONT WORK AND IV LOST ALL THE RIGHT EDITING :mad: :cen: :mad:

    i'll come back and fix the damn thing at a later date and bump the stupid thing.

    EDIT
    ITS FIXED!! :rule:
     
  2. rabi_sultan

    rabi_sultan <Bulla Ki Jana>

    does anyone know how to get the stave to come up nice and neat so everything is level? coz the tab above has just been screwed after all that time i spent entering it in :cry:
     
  3. prash_rocks

    prash_rocks Over the Hills &amp; Far Away

    http://www.indianguitartabs.com/showthread.php?s=&threadid=651
     
  4. rabi_sultan

    rabi_sultan <Bulla Ki Jana>

    i said id bump it when it was fixed
     

Share This Page