We all learn guitar together

Discussion in 'Guitar Lessons, Tutorials & Tips' started by samar_singh, Oct 21, 2006.

  1. samar_singh

    samar_singh New Member

    Hey Beginers Now its time to change ur life
    --------------------------------------------------------------------------------

    Hey guys let me introduce myself first I m film and video editor for films and television recently I had a surgery in my leg so I cant go out so I have decided to learn guitar from net and I got this site I have collected good tips and tutorials from this site and net so I want to share these things with you.

    Tutorial One
    Understanding the fretboard

    I would like to tell you first thing is guitar learning is not impossible infect its easy if u feel the music just you have to do it whenever you go out if u walk just do 1 2 3 4 exercise in few days you will learn to do things on beats and try to catch strumming pattern in songs (That jhing jhag jhing jhing jhag jhing thing called strumming )its like background music Don’t do tabs too much believe me u will waste time and you will take more time .start guitar practice with chords so if u want to learn guitar you should know you fretboard here it is

    1. First of all, there are 6 lines, each representing a string on your guitar.
    2. And there are frets each fret has its own no

    ---1---2---3---4---5---6---7---8---9---10--11-12--13---14-- <- frets number
    e|---|---|---|---|---|---|---|---|---|---|---|-e-|---|---|(1st string)
    B|---|---|---|---|---|---|---|---|---|---|---|-B-|---|---|(2nd string)
    G|---|---|---|---|---|---|---|---|---|---|---|-G-|---|---|(3rd string )
    D|---|---|---|---|---|---|---|---|---|---|---|-D-|---|---|(4th string)
    A|---|---|---|---|---|---|---|---|---|---|---|-A-|---|---|(5th string)
    E|-F-|-F#|-G-|-G#|-A-|-A#|-B-|-C-|-C#|-D-|-D#--E-|-F-|-G-|(6th/last string)

    Now I know most of u r angry with the naming system even i thought it in the beginning but everyday as I m learning guitar I m praising the inventor who has made it anyway don’t waste time to find out why its like that in future I will explain u now you just have to remember the
    Fret no 1 -2-3-4 and if u can remember fret board in its basic names its good otherwise with time u will recognize it any ways

    Just do one thing for 10 times for 4-5 days, play any string and play sharp frets (#) and then non sharp frets if u do this with time u will understand why this exercise is important
    Now I try to do it these r the tabs from song (Dekho kaise from OST Spiderman by Paki band called STRING) now u will notice something the way u r practicing fretboard these guys r making tabs it’s the same thing most of the time in every song so whenever u practice fretboard try figure out this thing u know what u will save lots of time if u got this point cause if try to remember fret no. u have to do it for every song and if catch this exercise and this theory u will b a master in few days
    Now its time to tune ur Guitar .Oh cant explain it to u guys so why don’t u watch this video its amazing

    http://video.google.com/videoplay?do...&q=tune+guitar


    E-------------------------------------------------
    B--0--3--0--3-------5--7--8--7--5-------5-----
    G--------------------------------------5---------
    D-------------------------------------------------
    A-------------------------------------------------
    E-------------------------------------------------

    daykhoo kaisay parbat say badal gayay


    E-----------------------------5-------------------
    B--5--5--7--7------7--7-----------5-------------
    G-------------------------------------------------
    D-------------------------------------------------
    A-------------------------------------------------
    E-------------------------------------------------

    barsay gayy yeh abb kahan

    E-------------------------------------------------
    B--0--3--0--3-------5--7--8--7--5-------5-----
    G--------------------------------------5---------
    D-------------------------------------------------
    A-------------------------------------------------
    E-------------------------------------------------

    dakhoo kaisay pholoon say khushboo gayee
    mehkay gee yeh abb kahan


    E--------------------------3----------------------
    B--7--7--7--7----5--5---------------------------
    G------------------------------------------------
    D-------------------------------------------------
    A-------------------------------------------------
    E-------------------------------------------------

    sukh ban gaye sapnay

    E-------------------5-----5--5----3--------------
    B--7--7--7--7------------------------------------
    G------------------------------------------------
    D-------------------------------------------------
    A-------------------------------------------------
    E-------------------------------------------------

    sab khoo gayay apnay

    E---7--7--5--7----5--5--7--5-------------------
    B-------------------------------------------------
    G------------------------------------------------
    D-------------------------------------------------
    A-------------------------------------------------
    E-------------------------------------------------

    dil bujh gaya ghar jal gaya

    E---5--5--7--3-------3---------------------------
    B--------------------------5----------------------
    G------------------------------------------------
    D-------------------------------------------------
    A-------------------------------------------------
    E-------------------------------------------------

    najanay kyun

    E---------3---3----------------------------------
    B---5--------------------------------------------
    G------------------------------------------------
    D-------------------------------------------------
    A-------------------------------------------------
    E-------------------------------------------------

    najanay kyun


    Tutorial Two
    Understanding chords

    In the beginning of this chord exercise you should know your finger no. its not tough at all

    -----===- thumb we don’t use it at all
    --------=====- Finger Key: Index finger/first finger: 1
    --------=======- Middle finger/second finger: 2
    --------=====-3 Ring finger/third finger: 3(Shadi wali lol)
    --------===- Pinky/fourth or smallest finger: 4

    Lets start chords
    The main purpose of this tutorial - to learn major basic guitar chords (most common)
    The 5 Major Basic Guitar Chords
    These are the chords played right down the neck at frets 1 to 3. They're great to learn to begin with because they get your fingers moving in formation and increase your co-ordination.
    These 5 basic guitar chords will stay with you forever too, and you'll learn to easily modify each one to sound more...interesting.
    So let's just first cover the 5 main basic guitar chords. The numbers indicate which finger is most comfortable on that fret.
    Bold Line = root string of the chord
    cross Line= don't play this string!
    Strings with no position dots should be played just as they are, open.
    A Chord.

    e-0---
    B-2--- <--use finger 3 here
    G-2--- <--use finger 2 here
    D-2--- <--use finger 1 here
    A-0---
    E-x---
    C Chord

    e-0---
    B-1--- <--use finger 1 here
    G-0---
    D-2--- <--use finger 2 here
    A-3--- <--use finger 3 here
    E-0---
    D Chord

    e-2--- <--use finger 2 here
    B-3--- <--use finger 3 here
    G-2--- <--use finger 1 here
    D-0---
    A-x---
    E-x---

    E Chord

    e-0---
    B-0---
    G-1--- <--use finger 1 here
    D-2--- <--use finger 3 here
    A-2--- <--use finger 2 here
    E-0---

    G Chord

    e-3--- <--use finger 3 here
    B-0---
    G-0---
    D-0---
    A-2--- <--use finger 1 here
    E-3--- <--use finger 2 here



    Minor Chords
    Try and see how you're altering the chords from above to create their minor versions below - it only involves moving one particular string down one fret. really interesting don’t lose hope I did but later I got the pace (even I m practicing these chords )
    Am Chord.

    e-0---
    B-1--- <--use finger 1 here
    G-2--- <--use finger 3 here
    D-2--- <--use finger 2 here
    A-0---
    E-x---
    Dm Chord

    e-1--- <--use finger 1 here
    B-3--- <--use finger 3 here
    G-2--- <--use finger 2 here
    D-0---
    A-x---
    E-x---
    Em Chord

    e-0---
    B-0---
    G-0---
    D-2--- <--use finger 3 here
    A-2--- <--use finger 2 here
    E-0---

    OK so these r the basic chords u must b thinking what happened to you other chords learn these chords if u d it for 2—3 days you will remember all these chords positions then try to do rest of the chords u will catch it quickly cause if u go in lenear manner then its really tough cause we have limited capacity to remember things so don’t think too much just do it I think it will work

    Plz download Major_and_Minor chords Document I m attaching with this post in the end

    7th Chords
    I m trying to figure out what it is if someone know the story of 7th chords plz share it with us
    A Good song for practice-ZOMBIE: by the CRANBERRIES .Hey we know these chords just download it and try to catch it on your guitar
    Em........C............
    Another head hangs lowly
    G..................D
    Child is slowly taken
    Em................C...............
    And the violence caused such silence
    G..................D
    Who are we mistaken
    ..........Em...........
    but you see, it's not me
    .............C....
    it's not my family
    .........G...............
    in your head, in your head
    .............D...
    they are fighting
     

    Attached Files:

    anshphenomenon likes this.
  2. samar_singh

    samar_singh New Member

    hi guys where r u all
     
  3. nazr

    nazr angel is my genital..

    Hey samar keep up the good work.
     
  4. zicky5608

    zicky5608 Power Shortage

    Where are all the other replies????????
     
  5. born2tab

    born2tab rhythm guitarist

    this thread was there since last month... and now y do u guys bother with replies..
    @samar...n e ways good work dood!!!
    Get well soon.
     
  6. zicky5608

    zicky5608 Power Shortage

    Uh..dude this thread was there since a very long time.

    It had almost 7-8 pages of replies. At that point samar_sing said goodbye =(
    I had spammed the most in that thread ! Guess all other replies are deleted..
     
  7. .:SpY_GaMe:.

    .:SpY_GaMe:. New Member

    or they lost it when igt crashed?
     

Share This Page