Warfaze - Joto Dure (album Aalo)

Discussion in 'Bengali Guitar Tabs - Submit or Request' started by SodaLime, Jan 25, 2005.

  1. SodaLime

    SodaLime New Member

    This one of my favourites... Joto Dure (i Thaako) by Warfaze (album - Aalo). It's a melodious track with a sense of serenity.

    First, the lyrics... (btw guys, this is my 100th post! )

    verse 1:
    choopchaap charideek mataal hawa
    pakhider kolahole mon je hara
    hotath dekhi tomaake ochena chaya
    amaari shopne aaka e je tumi

    prechorus:
    nihshobde ele tumi amaari bhoobone
    godhooli hoye robe tumi amaari chirokaal

    chorus:
    joto durei thaako robe amaari
    hariye jeyo na kokhono tumi

    verse 2:
    kotokaal royechi tomaari poth cheye
    koto raat keteche tomaari ashate

    The verse part's progress and feel is itself pretty much the whole song...

    G----------Em-------C---------D---
    choopchaap charideek mataal hawa
    G--------Em------C--------D----
    pakhider kolahole mon je hara
    G------------Em-----C---------D----
    hotath dekhi tomaake ochena chaya
    G------Em---------C-------D---
    amaari shopne aaka e je tumi

    Incase you're not sure...

    G 320033
    Em 022000
    C 332010
    D 200232

    After the verse, there's a prechorus part, which repeats after the second verse...

    Am--------C--------G-------------D--
    nihshobde ele tumi amaari bhoobone
    Am------------C---------G-------------D---
    godhooli hoye robe tumi amaari chirokaal

    Am 002210

    The chorus is to be played with power --

    G------Em---------C--------D---
    joto durei thaako robe amaari
    G-------Em-----C---------D---
    hariye jeyo na kokhono tumi

    It's a better idea to replace all the Em chords with Em7.

    Em 022000
    Em7 022030

    The chorus is followed by this part --

    Em----D-----C--D---
    Oo-oo-oo-oo-oo-oo

    After the second solo(keys), Balam(guitars, vocals) repeats the first verse with this little added part (only vowels) ...

    G------------Em---C---D---
    he-e-e-ey-ey-e-he-e-e-ey

    Play this twice.
    Actually it's played with the keys, not guitar.

    Now for the adventurers...

    Try this as the intro.

    B bend full step
    R release full step
    b bend half step
    ~ vibrato
    ) fret 10
    ! fret 11
    @ fret 12
    # fret 13 (and so on, see your pc keyboeard)

    ..4 measures. . . . . . . . . . . . . 4 measures(Keys part)
    e|-----------------------------------|-----5-23-----357----8-55-------|
    B|---------------------------------01|3-------------------------------|
    G|-----------------------------------|---0-------0-------0------------|
    D|-----------------------------------|--------------------------------|
    A|-----------------------------------|--------------------------------|
    E|-----------------------------------|--------------------------------|

    ..4 measures(Guitar part)
    e|-----------------------------------------|
    B|------------------8B---R---8B-B-B-B-8B-B-|
    G|----------------7------------------------|
    D|-----------------------------------------|
    A|6----6-7B7-------------------------------|
    E|---7-------------------------------------|

    ..2 measures
    e|----------------|
    B|B----/53--------|
    G|---------54-----|
    D|-----------7545-|
    A|----------------|
    E|----------------|

    ..4 measures
    e|----------------%B-%--&B&~------|
    B|8B-8--3-8B-8---%----------------|
    G|-------------------------------0|
    D|--------------------------------|
    A|--------------------------------|
    E|--------------------------------|

    ..4 measures
    e|-------------------------------------|
    B|--------------------)B--R--:cool:----/53|
    G|@(&--^@$--@(&--^@$-------------------|
    D|-------------------------------------|
    A|-------------------------------------|
    E|-------------------------------------|

    ..1 measure
    e|---------|
    B|---------|
    G|---54----|
    D|-----/75-|
    A|---------|
    E|---------|

    Here's the basic plucking for the verse --

    ..G . . . . . . . . Em . . . . . . . .
    e|--------|--------|--------|--------|
    B|------3-|--------|------3-|--------|
    G|----0---|--0---0-|----0---|--0-----|
    D|--4-----|----4---|--4-----|--------|
    A|--------|--------|--------|----0-2-|
    E|3-------|--------|0-------|--------|

    ..C . . . . . . . . D . . . . . . . .
    e|--------|--------|--------|--------|
    B|------3-|--------|------3-|--------|
    G|----0---|--0---0-|----0---|--0---0-|
    D|--4-----|----4---|--4-----|----4---|
    A|3-------|--------|5-------|--------|
    E|--------|--------|--------|--------|

    Basically the notes F#, G and D keep constant while the bass note moves around.
    As soon as you get a grip on the basic thing, I'll squeeze the TAB in half space to make it easy to see and that looks like this --

    ..G . . . .Em . . . C . . . .D. . . .
    e|--------|--------|--------|--------|
    B|---3----|---3----|---3----|---3----|
    G|--0--0-0|--0--0--|--0--0-0|--0--0-0|
    D|-4----4-|-4------|-4----4-|-4----4-|
    A|--------|------02|3-------|5-------|
    E|3-------|0-------|--------|--------|

    Over the prechorus part, the plucking is slightly changed though the rhythm holds...

    ..G . . . .Em . . . C . . . .D. . . .
    e|--------|--------|--------|--------|
    B|---1----|---1----|---3----|---3----|
    G|--2--2-2|--2--2-2|--0--0-0|--2--2-2|
    D|-2----2-|-2----2-|-0----0-|0-----0-|
    A|0-------|3-------|2-------|--------|
    E|--------|--------|--------|-2------|

    second time add this...
    ..D. . . .
    e|--------|
    B|-3--3---|
    G|--2--2--|
    D|---0--0-|
    A|--------|
    E|--------|

    The chorus includes a little bit of power chords --

    ..G . . .Bm . . . . C . . . .D. . . .
    e|--------|--------|--------|--------|
    B|--------|--------|--------|--------|
    G|-------4|----4444|5---5557|----7777|
    D|5---5554|----4444|5---5557|----7777|
    A|5---5552|----2222|3---3335|----5555|
    E|3---333-|--------|--------|--------|
    . . . *** . . .**** . . *** . . .****

    * means palm mute.

    (oo-oo...) after chorus --

    ..G . . . .Em . . . C . . . .D. . . .
    e|--------|--------|--------|--------|
    B|---3----|---3----|---3----|---3----|
    G|--0--0-0|--0--0-0|--0--0-0|--0--0-0|
    D|-4----4-|-4----4-|-4----4-|-4----4-|
    A|--------|--------|3-------|5-------|
    E|3-------|0-------|--------|--------|

    The first solo(after the chorus is played for the first time) starts like this...

    ..4 measures(guitar solo)
    e|--------------------------------------|
    B|----------------8----)B---@b--)~~~----|
    G|---------------7-7--------------------|
    D|9)@-----9)@---------------------------|
    A|---9-------9--------------------------|
    E|--------------------------------------|

    ..4 measures
    e|-------------------------#%&---&B-R-%-&~--|
    B|@#%-----@#%-----------#%&-----------------|
    G|---@---------------@$^--------------------|
    D|----------------@$^-----------------------|
    A|-------------)@$--------------------------|
    E|------------------------------------------|etc...

    Disclaimer:
    * This is the author's own work and intended for study purpose only.
    * The creator and owner of the song has NOT been contacted and taken permission of.
    * Any false or misleading information is entirely accidental and/or co-incidental.
    * The author takes NO responsiblity to defend any criticism(s) from or on behalf of the owner of the song. However, any comment(s) or criticism(s) from the forum is always welcome.

    Guys (and gals),

    I can also include the bass and drums part for the song if someone asks for it. Again, if anybody wants any other song TABbed, I'll be more than happy to contribute.

    Questions? Comments? Critisism? Or are you a pretty girl?
    Just send me a mail at [email protected]
     
  2. Rony HELL

    Rony HELL New Member

    dude can you do the tabbing in guitar pro software..
    It will be more helpfull.
    ill be pleased like no other..
    ill worship you...
    keep up the good work...
     
  3. timtim_light

    timtim_light New Member

    thnx man.... its cool :D
     

Share This Page