Violin Song (Iddarammayilato) Tabs

Discussion in 'Telugu Guitar Tabs - Submit or Request' started by premchand27, Jun 5, 2013.

  1. premchand27

    premchand27 New Member

    Violin Song Tabs.txt
    http://www.youtube.com/watch?v=nvYK3OG_drU
    Rep me if you like my work :)
    If there are any mistakes in my tabs please bring them in to my notice


    Violin Intro
    e>--10--10-----10-14-15-14-15-14-15-------------------------------------------
    b>----13--11-13--------------------15-13-13-12-12-13-15-13-11-10--------------
    g>12--------------------------------------------------------------------------
    d>----------------------------------------------------------------------------
    a>----------------------------------------------------------------------------
    e>----------------------------------------------------------------------------


    e>--------------------------------------------15-14-------------------------------
    b>-----10-11-10-----------------------10-11-13-----15-13-11-10--------------------
    g>11-12--------12-11-12-11-------11-12------------------------12-11--11-12-11-13--
    d>------------------------12-10------------------------------------12-------------
    a>-----------------------------13-------------------------------------------------
    e>--------------------------------------------------------------------------------

    Song
    Girl just let me be your man
    e>-----------------------------
    b>--11-11-13-10-11-------------
    g>12--------------12-----------
    d>-----------------------------
    a>-----------------------------
    e>-----------------------------

    I wanna hold your hand..
    e>------------------------
    b>11-11-13-10-11----------
    g>--------------12--------
    d>------------------------
    a>------------------------
    e>------------------------


    And take you to you fantasy..
    e>--------------10-11-10---------
    b>11-11-13-11-13-----------------
    g>-------------------------------
    d>-------------------------------
    a>-------------------------------
    e>-------------------------------

    Eyes.. When i look at into your eyes..
    e>-----------------------------
    b>--11-11-13-10-11-------------
    g>12--------------12-----------
    d>-----------------------------
    a>-----------------------------
    e>-----------------------------

    You make me realize..
    e>------------------------
    b>11-11-13-10-11----------
    g>--------------12--------
    d>------------------------
    a>------------------------
    e>------------------------

    Oh baby you're the only one for me..
    e>--------------10-10----------------
    b>11-11-13-11-13-----13-11-13--------
    g>---------------------------12------
    d>-----------------------------------
    a>-----------------------------------
    e>-----------------------------------

    Kaatamanam vaseekara.. premaathura
    e>--13-10-13--------13--13-15-13-10--
    b>----------11-10-10-----------------
    g>12------------------12-------------
    d>-----------------------------------
    a>-----------------------------------
    e>-----------------------------------

    Moraggara manohara
    e>--13-10-13--------13---
    b>----------11-10-10-----
    g>12---------------------
    d>-----------------------
    a>-----------------------
    e>-----------------------

    Chathura nidhura chora katudhara
    e>14-15-17--14-15------------------------
    b>--------15-----13-12-13-11-10----------
    g>-----------------------------12--------
    d>---------------------------------------
    a>---------------------------------------
    e>---------------------------------------

    Girl gundello chotistha
    e>-----------------------------
    b>--11-11-13-10-11-------------
    g>12--------------12-----------
    d>-----------------------------
    a>-----------------------------
    e>-----------------------------

    Premanche choopistha
    e>------------------------
    b>11-11-13-10-11----------
    g>--------------12--------
    d>------------------------
    a>------------------------
    e>------------------------

    Nee lokam motham nenavutha
    e>--------------10-11-10--------------
    b>11-11-13-11-13---------13-11-10-----
    g>------------------------------------
    d>------------------------------------
    a>------------------------------------
    e>------------------------------------

    Come vennello thodavutha
    e>-----------------------------
    b>--11-11-13-10-11-------------
    g>12--------------12-----------
    d>-----------------------------
    a>-----------------------------
    e>-----------------------------

    Varsham lo needavutha
    e>------------------------
    b>11-11-13-10-11----------
    g>--------------12--------
    d>------------------------
    a>------------------------
    e>------------------------

    Neekosam nenu theeyani paatavutha
    e>--------------15-13-11-10-11-10--
    b>11-11-13-11-13-------------------
    g>---------------------------------
    d>---------------------------------
    a>---------------------------------
    e>---------------------------------

    Everyday every night every warm every right
    e>-----------------------------------------
    b>13-15-15-11-13-13-10-11-11-11-10---------
    g>--------------------------------12-10----
    d>-----------------------------------------
    a>-----------------------------------------
    e>-----------------------------------------

    Neethone nadavali antunde manasu
    e>-------------------------------------
    b>13-15-15-11-13-13-10-11-11-11-13-10--
    g>-------------------------------------
    d>-------------------------------------
    a>-------------------------------------
    e>-------------------------------------

    Sumarajaneekara soma vibudha
    e>----------------------------------
    b>12-13-12-13-11-----------11-------
    g>--------------12-12-10-12--10-12--
    d>----------------------------------
    a>----------------------------------
    e>----------------------------------

    Madhura manohara naama
    e>------------------------------
    b>12-13-12-13-11--------11------
    g>--------------12-12-10--12----
    d>------------------------------
    a>------------------------------
    e>------------------------------

    Naa vente nuvvunte naa sarvam nee vente
    e>-----------------------------------------
    b>13-15-15-11-13-13-10-11-11-11-10---------
    g>--------------------------------12-10----
    d>-----------------------------------------
    a>-----------------------------------------
    e>-----------------------------------------

    Ne anna anakunna neekantha thelusu
    e>-------------------------------------
    b>13-15-15-11-13-13-10-11-11-11-13-10--
    g>-------------------------------------
    d>-------------------------------------
    a>-------------------------------------
    e>-------------------------------------

    Aaa.. Samarakalaavala bheema abhaya
    e>----------------------------------
    b>12-13-12-13-11-----------11-------
    g>--------------12-12-10-12--10-12--
    d>----------------------------------
    a>----------------------------------
    e>----------------------------------

    athura parakrama shooma
    e>-----------13-13-13-15-13-----
    b>12-13-12-13-------------------
    g>------------------------------
    d>------------------------------
    a>------------------------------
    e>------------------------------

    Raave gulaabi maalika
    e>--13-10-13-----15-13----
    b>----------11-10---------
    g>12----------------------
    d>------------------------
    a>------------------------
    e>------------------------

    Vayasa vaccchesa neede ee baalika
    e>14-15-17--14-15------------------
    b>--------15-----13-12-13-11-10----
    g>-----------------------------12--
    d>---------------------------------
    a>---------------------------------
    e>---------------------------------

    (same tabs for the second verse)
    If you like my work like my page
    https://www.facebook.com/TeluguGuitaristsAndSingersClub
     
  2. hemanthkick

    hemanthkick New Member

    great work bro....
    super....
     
  3. premchand27

    premchand27 New Member

    Thanks
    hemanthkick
     
  4. nawaz005

    nawaz005 New Member

    thanks man!! :)
     

Share This Page