villu - prelude of vaada maa****ey

Discussion in 'Tamil Guitar Tabs - Submit or Request' started by kathihere, Aug 1, 2012.

  1. kathihere

    kathihere New Member

    hello - anyone please post the prelude for vaada maa****ey song ....
     
  2. ashok15189

    ashok15189 New Member

    Here the prelude of this song

    (D) A4 B4 D5 D5 D5 D5 E5 D5 C#5 B4 A4

    ( A) A4 B4 C#5 C#5 C#5 C#5 A4 B4 C5 C#5

    (G) D5 E5 F#5 G5 G5 G5 G5 F#5 E5

    (D) F#5 F#5 F#5 F#5 E5 D5

    (A)A4 A4 A4 A4 A4 B4 F#5 ( D) D5

    ~~~~ Thumbs up and enjoy ~~~~~
     
  3. kathihere

    kathihere New Member

    thank you ... I will try this /...
     
  4. kathihere

    kathihere New Member

    hi ... can you post the tabulature please ... sorry i m a beginner ... i need like
    the following one ...

    e--------------------------------------------------------3-3-------------------------------|
    B--------------------------------------------------------2-2-------------------------------|
    G--------------------------------------------2-x-2-2-2-2-2-2-------------------------------|
    D------2-x-2--------2-x-2--2-----------------2-x-2-2-2-2-2-2----------2-x-2------2-x-2-----|
    A-0h2--2-x-2---0h2--2-x-2--2--------2--------0-x-0-0-0-0-0-0-------5--2-x-2------2-x-2-----|
    E------0-x-0--------0-x-0--0--0--3-----------------------------5/7----0-x-0--3b--0-x-0-----|
     
  5. cibhin

    cibhin New Member

    E--------------------------------------------------------2-3-3-3--3-2---2-2-2--2-----------------------||
    B------3-3-3-5-3-2-0--------------2-2-2-----1-2-----3-5---------------5----------5-3------------2-3---||
    G--2-4----------------2-----2-3-4--------2-4------------------------------------------2-2-2-22-4-------||
    D--------------------------------------------------------------------------------------------------------||
    A--------------------------------------------------------------------------------------------------------||
    E--------------------------------------------------------------------------------------------------------||


    Enjoy..!!
     
  6. pearlmaharajan

    pearlmaharajan New Member

    cibhin... that was good... thanks...
     
  7. kathihere

    kathihere New Member

    Thanks dude ... I will try this
     

Share This Page