vikas bhalla's hai dhuan hai dhuan

Discussion in 'Hindi Guitar Tabs - Submit or Request' started by swati_mltr, May 17, 2007.

  1. swati_mltr

    swati_mltr New Member

    Hi!!
    Plz can nybdy post d tabs(lead) of vikas bhalla's song "hai dhuan hai dhuan".
    I hav searched d entire IGT nd other sites but cud not locate d tabs..
    I wud b greatful if sum1 posts those tabs..

    Thanks
    Swati
     
  2. swati_mltr

    swati_mltr New Member

    No replies yet!!Aint there ny tabbers out here!!!!
     
  3. swati_mltr

    swati_mltr New Member

  4. heyjoe12

    heyjoe12 New Member

    Nice song. Am not much into tabs and leads but here's my interpretation of the chords.

    Am not sure if they are perfect so please feel free to correct them,

    Thanks!

    E……………………..........C#m11 (456444)
    Hai dhuan hai dhuan, Bas dhuan hai dhuan
    E……………………..........C#m11
    Kuch haseen dino ki, Yaadon ka hai dhuan

    A…………………………............Fm#
    Waqt yeh meherbaan hai, Hooooooo
    A
    Sama yeh aaj hai kal kahaan hai
    Fm#..... B
    Heeeee-yeah yeah

    A………………………….............B
    Jaane kya hua Door hum ho gaye
    A…………………………..........B
    Aaj phir mile aur phir kho gaye

    A…………………………....Fm#
    Na koi darmiyaan hai, Hooo
    A
    To phir kyon main yahan tu wahan hai
    Fm#..... B
    Heeeee-yeah yeah


    and so on...
     
  5. paranoid13rohan

    paranoid13rohan .: iNDiaN iDioT 3.0 :.

    @ heyjoe12 ~ i checked out your chords.
    doesn't seem quite correct to me. :think:
    these are the chords that i play.
    check it out ~



    Fm-------------------D#--------C#-------
    Hai dhuan hai dhuan, Bas dhuan hai dhuan
    Fm-------------------D#--------C#-------
    Kuch haseen dino ki, Yaadon ka hai dhuan


    G#----------------------D#-
    Waqt yeh meherbaan hai, aur
    ---------G#--------------------
    Sama yeh aaj hai kal kahaan hai
    C#---D#---Fm--
    Yeah yeah yeah


    Fm-----------------X--------Bb
    Jaane kya hua Door hum ho gaye
    Fm----------------X----------Bb
    Aaj phir mile aur phir kho gaye << X = 112211 >>


    G#--------------------D#--
    Na koi darmiyaan hai, Hooo
    -------------G#---------------------
    To phir kyon main yahan tu wahan hai
    C#---D#---Fm--
    Yeah yeah yeah




    feel free to comment.
    cheers :beer:
     
  6. swati_mltr

    swati_mltr New Member

    Hi Guys!!!Nice to c ur response..but plz cud u post d tabs with d lead...I m not much into playing d chords....
    Thanx
     
  7. heyjoe12

    heyjoe12 New Member


    Your chords are much better, Rohan!

    Cheers and reps to you! :)
     
  8. paranoid13rohan

    paranoid13rohan .: iNDiaN iDioT 3.0 :.

    tabs

    h - hammer (hammer softly. this is not a rock number.)
    s - slide



    Hai dhuan hai dhuan, Bas dhuan hai dhuan
    |--------------------------------------|e
    |--------------------------------------|b
    |-1-0-1-0-------0------0---------1-0-1-|g
    |---------3-3----31--13-3-3-33---------|d
    |--------------------------------------|a
    |--------------------------------------|E


    Kuch haseen dino ki, Yaadon ka hai dhuan
    |--------------------------------------|e
    |--------------------------------------|b
    |-1-0-1-0-------0------0---------1-0-1-|g
    |---------3-3----31--13-3-3-33---------|d
    |--------------------------------------|a
    |--------------------------------------|E


    Waqt yeh meherbaan hai, aur ...
    |-------------------------|e
    |-----------------------4-|b
    |-5-3-5---3-3h5-3h5-3-3---|g
    |-------6-----------------|d
    |-------------------------|a
    |-------------------------|E


    Sama yeh aaj hai kal kahaan hai ... Yeah yeah yeah
    |-3---------------------------------------|e
    |---6-4-----------------------------------|b
    |-------5-3-5---3-3h5-3h5-3-3-6---s8---s10|g
    |-------------6---------------------------|d
    |-----------------------------------------|a
    |-----------------------------------------|E



    Jaane kya hua Door hum ho gaye
    |-------------------------|e
    |-----------------1-4-3---|b
    |-1-0-1-0-1---1-3-------3-|g
    |-------------------------|d
    |-------------------------|a
    |-------------------------|E

    Aaj phir mile aur phir kho gaye
    |-------------------------|e
    |-----------------1-4-3---|b
    |-1-0-1-0-1---1-3-------3-|g
    |-------------------------|d
    |-------------------------|a
    |-------------------------|E

    Na koi darmiyaan hai, Hooo
    |--------------------------|e
    |-----------------------4--|b
    |-5-3-5---3-3h5-3h5-3-3----|g
    |-------6------------------|d
    |--------------------------|a
    |--------------------------|E

    To phir kyon main yahan tu wahan hai ... Yeah yeah yeah
    |-3---------------------------------------|e
    |---6-4-----------------------------------|b
    |-------5-3-5---3-3h5-3h5-3-3-6---s8---s10|g
    |-------------6---------------------------|d
    |-----------------------------------------|a
    |-----------------------------------------|E



    comments,suggestions,corrections are most welcome :beer:
     
  9. paranoid13rohan

    paranoid13rohan .: iNDiaN iDioT 3.0 :.

    @ joe ~ thanx man. :grin: but didn't recieve any reps :NoNo:

    @ swati ~ intro tabs coming soon. :)
     
  10. swati_mltr

    swati_mltr New Member

    Thanxxxx!!!!

    Yipeeeeee.....lolz...d tabs r finally here...hey Rohan thanx dude!!!Nd yeah ll wait 4 d intro too....:)
     
  11. heyjoe12

    heyjoe12 New Member

    oops! but is not my fault. I tried but the site asked me to spread the reps around. Think that have been handing out reps to you too often!!

    Will do as soon as i am allowed to!

    By the way, checked out ur soundclick, u have an awesome voice as well...you should go professional!
     

Share This Page