Vibes - Dure Dure Chords & Tabs

Discussion in 'Bengali Guitar Tabs - Submit or Request' started by dail_kh0r_pagla, Oct 14, 2006.

  1. dail_kh0r_pagla

    dail_kh0r_pagla New Member

    Hi all... this time I m presenting u the chords & tabs of Dure Dure by Vibe, (album -- aaguntuk), a not-so-famous song by a not-so-famous band. But really, I got hooked up by it. Infact, it's the kind of a song known as ear-worms... keep ringing in your ears.

    here's the complete lyrics...

    verse 1:
    chootthe chootthe bohoo dure chole gechi aami
    ojaanaa ek neerobotaar shoore

    chorus:
    dure dure paakhi oore oore aashe aar chole jaae
    dure dure paakhi oore oore aashe aar chole jaae

    verse 2:
    shoore shoore
    aami geye jaai akaash neele

    haraano dupoore khooje paai phele aasha deen gulo
    smritir araale doobe jaai kothaae

    Good song for beginners...

    For the verse parts use this prog.

    G-------------------Em-------------------D----D--
    chootthe chootthe bohoo dure chole gechi aami
    G-------------Em-----------D--D--
    ojaanaa ek neerobotaar shoore

    And for the chorus use the most common progress known to man...

    G----------------Em---------C----------------D---
    dure dure paakhi oore oore aashe aar chole jaae

    Also, for the last two lines of the second verse, use the same prog.

    G--------------Em-----------C--------------------D--
    haraano dupoore khooje paai phele aasha deen gulo
    ----G----------Em-----------C-----D--
    smritir araale doobe jaai kothaae

    The chords used...

    G 320033
    Em 022000
    C 332010
    D 200232 (no need to play barre chords)
     
  2. dail_kh0r_pagla

    dail_kh0r_pagla New Member

    Over the chorus, you may want to use power chords, as played originally --

    ..G5. . . . . . . . E5. . . . . . . . .C5. . . . . . . . D5. . . . . . . .
    e|--------|--------|--------|--------||--------|--------|--------|--------|
    B|--------|--------|--------|--------||--------|--------|--------|--------|
    G|--------|--------|--------|--------||5-------|--------|7-------|--------|
    D|5-------|--------|2-------|--------||5-------|--------|7-------|--------|
    A|5-------|--------|2-------|--------||3-------|--------|5-------|--------|
    E|3-------|--------|0-------|--------||--------|--------|--------|--------|

    Pick each chord only once.

    Intro plucking figure --

    ..G . . . . . . . . Em. . . . . . . . .C . . . . . . . . D . . . . . . . .
    e|--------|3-------|--------|0-------||--------|0-------|--------|2-3-----|
    B|--------|--3-----|------0-|--0-----||--------|--1-----|------3-|----3---|
    G|------0-|----0---|----0---|----0---||------0-|--------|--2-----|------0-|
    D|----0---|--------|--2-----|------2-||----2---|----2-0-|--------|--------|
    A|0-2-----|------0-|2-------|--------||0-3-----|--------|--------|--------|
    E|--------|--------|--------|--------||--------|--------|--------|--------|

    Start with the intro plucking figure alone, from second time play the following figure over it --

    ..G . . . . . . . . Em. . . . . . . . .C . . . . . . . . D . . . . . . . .
    e|--------|--------|--------|--------||--------|--------|--------|--------|
    B|#-----@-|--------|)-----8-|--------||7-----8-|--------|--------|--------|
    G|--------|--------|--------|--------||--------|----5-5/|7------\|--------|
    D|--------|--------|--------|--------||--------|--------|--------|--------|
    A|--------|--------|--------|--------||--------|--------|--------|--------|
    E|--------|--------|--------|--------||--------|--------|--------|--------|

    ..G . . . . . . . . Em. . . . . . . . .C . . . . . . . . D . . . . . . . .
    e|--------|--------|--------|--------||--------|--------|--------|--------|
    B|#-----@-|--------|)-----8-|--------||8-----7-|------8-|8/)-8-7-|--x-----|
    G|--------|--------|--------|--------||--------|--------|--------|--------|
    D|--------|--------|--------|--------||--------|--------|--------|--------|
    A|--------|--------|--------|--------||--------|--------|--------|----)-)-|
    E|--------|--------|--------|--------||--------|--------|--------|----)-)-|

    From here (ie. after 3 times) drums and keys start.

    ..G . . . . . . . . Em. . . . . . . . .C . . . . . . . . D . . . . . . . .
    e|--------|--------|)-------|--------||--------|--------|--------|--------|
    B|#-----@-|--------|--------|--------||------#-|----@---|--------|--------|
    G|--------|--------|------@-|--------||@-------|--------|$-@-!---|----x---|
    D|--------|--------|--------|--------||--------|--------|--------|--------|
    A|--------|--------|--------|--------||--------|--------|--------|--------|
    E|--------|--------|--------|--------||--------|--------|--------|--------|

    ..G . . . . . . . . Em. . . . . . . . .C . . . . . . . . D . . . . . . . .
    e|)-------|)-8-----|--------|--------||)-------|)-8-----|--------|--------|
    B|--------|----@-8-|--------|--------||--------|----@-)-|--)---)-|)-8-7---|
    G|--------|--------|--------|--------||--------|--------|--------|--------|
    D|--------|--------|--------|--------||--------|--------|--------|--------|
    A|--------|--------|--------|--------||--------|--------|--------|--------|
    E|--------|--------|--------|--------||--------|--------|--------|--------|

    ..G . . . . . . . . Em. . . . . . . . .C . . . . . . . . D . . . . . . . .
    e|)-------|)\8-8-8\|7-7-7\5-|5-5\3-3-||3--/8---|7\5-----|--------|--------|
    B|--------|--------|--------|--------||--------|----8-7-|--------|--------|
    G|--------|--------|--------|--------||--------|--------|--------|--------|
    D|--------|--------|--------|--------||--------|--------|--------|--------|
    A|--------|--------|--------|--------||--------|--------|--------|--------|
    E|--------|--------|--------|--------||--------|--------|--------|--------|

    ..(keyboard piece starts)
    e|--------|--------|--------|--------|
    B|7/8-----|-/\/\---|--------|--------|
    G|--------|--------|--------|--------|
    D|--------|--------|--------|--------|
    A|--------|--------|--------|--------|
    E|--------|--------|--------|--------|

    Then the keyboard piece plays... I'll include it, just in case --

    ..G . . . . . . . . Em. . . . . . . . .C . . . . . . . . D . . . . . . . .
    e|3---5-7-|--5---3-|----3---|----0-1-||3-----5-|----7-5-|5-3-2-0-|--------|
    B|--------|--------|7-----3-|--3-----||1-----3-|--------|--------|3---3---|
    G|0-------|--------|0-------|4-------||0-----2-|--------|--------|--2-----|
    D|0-------|--------|--------|--------||---0----|--------|0-------|--------|
    A|--------|--------|--------|--------||--------|--------|0-------|--------|
    E|--------|--------|0-------|--------||--------|--------|--------|--------|

    You could exclude the open notes on the lower strings if it seems hard to play them along with the main melody line.

    Symbols used...

    / slide up
    \ slide down

    ) fret 10 (see your pc keyboard, shift+0)
    ! fret 11 (same way, shift+1)
    @ fret 12 (and so on)
    # fret 13
    $ fret 14

    Guitar solo --

    ..G . . . . . . . . Em. . . . . . . . .C . . . . . . . . D . . . . . . . .
    e|--------|--------|--------|--------||--------|--------|--------|--------|
    B|@---@-#-|@---@-#-|@---@-#-|@-)-----||------)-|)-------|----@-@#|@-)---)-|
    G|--------|--------|--------|----@---||@---@---|--@-@---|--@-----|----@---|
    D|--------|--------|--------|--------||--@-----|------@-|@-------|--------|
    A|--------|--------|--------|--------||--------|--------|--------|--------|
    E|--------|--------|--------|--------||--------|--------|--------|--------|

    ..G . . . . . . . . Em. . . . . . . . .C . . . . . . . . D . . . . . . . .
    e|--------|--------|--------|--------||--------|--------|--------|--------|
    B|@---@-#-|@---@-#-|@---@-#-|@-)-----||--------|--------|--------|--------|
    G|--------|--------|--------|----@---||@-!-!-9-|9-7-7-5-|--------|--------|
    D|--------|--------|--------|--------||--------|--------|9-7-5---|----4---|
    A|--------|--------|--------|--------||--------|--------|--------|--------|
    E|--------|--------|--------|--------||--------|--------|--------|--------|

    ..G . . . . . . . . Em. . . . . . . . .C . . . . . . . . D . . . . . . . .
    e|--------|--------|--------|--------||--------|--------|--------|--------|
    B|--------|--------|--------|--------||--------|--------|--------|----8))-|
    G|--------|--------|--------|--------||--------|--------|--------|799-----|
    D|5-----5/|7-7/9-9-|9-)-9---|--9-9-)-||9-------|--------|----799-|--------|
    A|--------|--------|--------|--------||--------|--------|9))-----|--------|
    E|--------|--------|--------|--------||--------|--------|--------|--------|

    ..G . . . . . . . . Em. . . . . . . . .C . . . . . . . . D . . . . . . . .
    e|--------|------)-|--------|)-)/@-)-||7)87875-|--------|--------|--------|
    B|@---@-@-|@-)-8---|--------|--------||--------|8-7-8-7-|--------|--------|
    G|--------|--------|--------|--------||--------|--------|9-7-----|--------|
    D|--------|--------|--------|--------||--------|--------|----)-9-|7-------|
    A|--------|--------|--------|--------||--------|--------|--------|--)-----|
    E|--------|--------|--------|--------||--------|--------|--------|--------|

    Then play intro plucking figure twice (this time add distortion).

    ..G . . . . . . . . Em. . . . . . . . .C . . . . . . . . D . . . . . . . .
    e|--------|3-------|--------|0-------||--------|0-------|--------|2-3-----|
    B|--------|--3-----|------0-|--0-----||--------|--1-----|------3-|----3---|
    G|------0-|----0---|----0---|----0---||------0-|--------|--2-----|------0-|
    D|----0---|--------|--2-----|------2-||----2---|----2-0-|--------|--------|
    A|0-2-----|------0-|2-------|--------||0-3-----|--------|--------|--------|
    E|--------|--------|--------|--------||--------|--------|--------|--------|

    For outro, play the intro plucking figure twice, but slightly changed in the end --

    ..G . . . . . . . . Em. . . . . . . . .C . . . . . . . . D . . . . . . . .
    e|--------|3-------|--------|0-------||--------|0-------|--------|2-3-----|
    B|--------|--3-----|------0-|--0-----||--------|--1-----|------3-|----3---|
    G|------0-|----0---|----0---|----0---||------0-|--------|--2-----|------0-|
    D|----0---|--------|--2-----|------2-||----2---|----2-0-|--------|--------|
    A|0-2-----|------0-|2-------|--------||0-3-----|--------|--------|--------|
    E|--------|--------|--------|--------||--------|--------|--------|--------|

    ..G . . . . . . . . Em. . . . . . . . .C . . . . . . . . D . . . .********
    e|--------|3-------|--------|0-------||--------|0-------|--------|232-023-|
    B|--------|--3-----|------0-|--0-----||--------|--1-----|------3-|--------|
    G|------0-|----0---|----0---|----0---||------0-|--------|--2-----|--------|
    D|----0---|--------|--2-----|------2-||----2---|----2-0-|--------|--------|
    A|0-2-----|------0-|2-------|--------||0-3-----|--------|--------|--------|
    E|--------|--------|--------|--------||--------|--------|--------|--------|

    ..*Flash
    e|--------|3-------|--------|--------|
    B|--------|3-------|--------|--------|
    G|------0-|--------|--------|--------|
    D|----0---|--------|--------|--------|
    A|--2-----|--------|--------|--------|
    E|3-------|--------|--------|--------|


    Questions? Comments? Critisism?
    Just send me a mail at junann@gmail.com
    u can also check ma site
    www.junannn.multiply.com
     
  3. g0g0l

    g0g0l ! SpAm

    Cud i hav d song plzz?? thnx... :)
     
  4. g0g0l

    g0g0l ! SpAm

    n I don't think posting ur personal info s is legal in IGT...u might also like to correct that..
     
  5. dail_kh0r_pagla

    dail_kh0r_pagla New Member

  6. rizz420

    rizz420 WoRsT DrEaMs R MaDe Of Me

    vai dail_khor_pagla ... good copy and paste ...plz dont do it anymore ...ok???
     
  7. skywriter

    skywriter cHiLdReN oF bODOm

    thnx 4 the intro pluckin'
     
  8. dail_kh0r_pagla

    dail_kh0r_pagla New Member

    hmm wht da hell is goin ova here.
    post korlei bole copy kortesi.
     
  9. rizz420

    rizz420 WoRsT DrEaMs R MaDe Of Me

    ohh realy???

    OK now ppl r judges ... plz visit ...

    http://shoor.3.forumer.com/index.php?showtopic=28

    dosh kore vul sikar korlei to hoto ... atleast ijjot to jeto na ... whatever we r fnds .. ok ... apni copy-paste koren bt atleast jar tab take to credit deya uchit .. thik na??
     
  10. g0g0l

    g0g0l ! SpAm

    I agree wid Riz completely/....
     

Share This Page