vezhambal kezhum-malayalam

Discussion in 'Tamil Guitar Tabs - Submit or Request' started by sreenuisbusy, May 3, 2009.

  1. sreenuisbusy

    sreenuisbusy New Member

    Movie- Olangal


    e |--------5-5-4-----
    B |---5------------5--
    G |-------------------
    D |--------------------
    A |--------------------
    E |--------------------
    ve zhambal kezh um

    e |--------3-3-2-------
    B |---5-----------3--5-
    G |---------------------
    D |---------------------
    A |---------------------
    E |---------------------
    venal kudir am nee..

    plz rply..........
     
  2. mjosealappat

    mjosealappat New Member

    good and impressive
     
  3. sathish lion

    sathish lion New Member

    hello sir this is tamil forum .... not malayalam ...
     
  4. majeedsa

    majeedsa New Member

    Ekakini ninnormmakal etho nizhal chithrangalayi

    e----------------------------33--2----2---55--4------------------
    B-5-3-5-----5-3-5------5---------------------------------------
    G-------5---------5----------------------------------------------


    sir pls post rest of the lines
     

Share This Page