Uyirin Uyire from Kaaka Kaaka

Discussion in 'Tamil Guitar Tabs - Submit or Request' started by jackdaws, Sep 16, 2004.

  1. jackdaws

    jackdaws New Member

    hello friends,

    this is my first post and I'm posting the tab for the song Uyirin Uyire from the movie Kaakha Kaakha (its a tamil movie) and i believe the telugu version of the same movie is titled Gharshana. I dont know if the Hindi version also has the same song or not. Do try it out and lemme know if you like it.

    Adios Amigos and have fun playin....

    Jack

    Uyirin Uyire from Kaakha Kaakha. Music director: Harris Jayaraj

    Points to note:

    a) Use your imagination to play the lead. The best way is to play along with the song to get the timing for the song and also to develop your own style for the song.

    b) The notes below are just the main notes for the song and i play the song using pull off's and slides which makes the song more fun to play with. Also try using string bending at notes (u shoudl experiment with it).

    c) I would recommend use of an effects pedal(s) or atleast a minimum of overdrive to get some additional sustain into the notes.

    d) To my limited understanding the scale for this song is on Am.

    e) THE TAB IS ON TWO STRINGS (no's 1 (E) and 2 (B))..you can also play by moving down octaves which sounds really kewl when you play along with the song. Experiment with that

    f) I havent tabbed the interludes

    g) The Power chords are in the Am chord progression

    Intro and Vocals first part

    ----14--12--14--15--14--12--14--------------12--14------------------12-------------------
    -12-----------------------------15--14--12---------15--14--12---15------14--12--10--12---
    -----------------------------------------------------------------------------------------


    -----------------------------------------------------------------------------------------
    -7--15--14--15-15-15--14--14--15--14--12--10--12-----------------------------------------


    -----------------------------------------------------------------------------------------
    -12--12--14--15---14--12--10-10-10--12--14--12---5---7-----------------------------------


    Vocal parts in between

    ----7--7--7--7--7--6--7--6-----7--7--7--6---9--6--7--6-----------------------------------
    -7------------------7--8--7-7--------------------------7--8--7---------------------------


    ----------5---------6--------7--9--10--12------12--12--12--14--12--10--9--10--9--7--7----
    -7--5--7----7--5--7---7--5-7---------------12--------------------------------------------


    -----12--12--12--15--14--12--10--9--10--9-7--7--7--7--9--10--9--7--5--5--5--7--9---7-----
    -12----------------------------------------------------------------------------------5--7
     
  2. Natasia

    Natasia ...

    grrrrrrr888 job jackdaws,,, the lil i tried of ur tabs sounds awssommee....abhi me has loadssaa studying to do but once thts kinda over me will post tam tabs too.....
     
  3. jackdaws

    jackdaws New Member

    gr8 nat...look forward to ur tamil tabs man...thanks...
     
  4. srini_fox

    srini_fox New Member

    For those stuck with a classical guitar :(

    ...like me... 12s and 14s are a pain to play...
    just subtract 12 from each string ....
     
  5. j_necromancer

    j_necromancer New Member

    cool tabs dude!!!
     
  6. vampire_swami

    vampire_swami New Member

    this way was too cool.. cheers bro :)
     
  7. vicky lohon

    vicky lohon New Member

    can anyone help me with the first part of the vocals? i can't seem to figure out the rhythm even though i listened to the song
     

Share This Page