Two famous songs [Vocal melody + chords]

Discussion in 'Hindi Guitar Tabs - Submit or Request' started by killer_instinct, Jan 16, 2005.

  1. killer_instinct

    killer_instinct New Member

    Hey people, again, only some of which I know. Here goes.

    AKELE HAIN TO KYA GHUM HAI [Q.S.Q.T.]
    ===============================

    Vocal melody :

    Akele hain, to kya ghum hai
    e---------------------------------------------------------------------
    B-------------------------------------------------------------------
    G---9-11-11s12---11-12-14-14s16-----------------------------------
    D-9-------------------------------------------------------------------
    A---------------------------------------------------------------------
    E---------------------------------------------------------------------

    Chahe to hamare bas me kya nahin [Sorry if the lyrics are wrong]
    e---------------------------------------------------------------------
    B-----15 15h17 17p15-15p13 13p12-12p10-----------------------------
    G-16-----------------------------------------------------------------
    D---------------------------------------------------------------------
    A---------------------------------------------------------------------
    E---------------------------------------------------------------------

    Bas ek zara Saath ho tera
    e---------------------------------------------------------------------
    B-------------------------10-10----------------------------------------
    G-12-11-12p11s9---------------11-12p11s9-7--------------------------
    D---------------------------------------------------------------------
    A---------------------------------------------------------------------
    E---------------------------------------------------------------------

    Tere to hain hum Kab se sanam
    e---------------------------------------------------------------------
    B------7-----------------------7--------------------------------------
    G-7h9----7h9-------------7h9----h9-----------------------------------
    D---------------------------------------------------------------------
    A---------------------------------------------------------------------
    E---------------------------------------------------------------------

    Chords : [Quick changing]

    Akele hain : Em, D, C
    To kya ghum hai : D, G
    Chahe to hamare bas me kya nahin : Em, D, C, G, D
    Bas ek zara : Em, D
    Saath ho tera : Em C [Pause at C]

    Tere to hai hum : Em, D, C
    Kab se sanam : D, Em

    =====================================================

    TU, TU HAI WAHI [Movie not known]
    ===========================

    Vocal melody :

    Tu tu hai wahi, dil ne jise apna kaha
    e-----------------------------------------------------------------
    B----------------13-12-10---------------------12-----------------
    G-9-11h12p11-9-----------12-11----9-11-9------------------------
    D--------------------------------12--------12---------------------
    A-----------------------------------------------------------------
    E-----------------------------------------------------------------

    Tu hai jahan, main hu wahan, ab to ye jeena, tere bin hai saza
    e-----------------------------------------------------------------
    B-10----------------------------10----------------------12-10-9-9
    G----12-11h12-9----11h12p11-9----11-11-9-8-8---8-11---------------
    D-----------------------------------------------------------------
    A-----------------------------------------------------------------
    E-----------------------------------------------------------------

    Mil jayen jis tara, leheren jis tarah, fir ho na judaa
    e-----------------------------------------------------------------
    B-10---10-12-13-12-10---------10-12--------------------10---------
    G---------------------12---12-------12-11-9-11h12p11-9------------
    D-----------------------------------------------------------------
    A-----------------------------------------------------------------
    E-----------------------------------------------------------------

    Ha ye wada raha
    e-----------------------------------------------------------------
    B-----------------------------------------------------------------
    G-12-11-9h11----11-12p11p9----------------------------------------
    D------------12---------------------------------------------------
    A-----------------------------------------------------------------
    E-----------------------------------------------------------------

    Repeat tabs for continuation.

    Chords :

    Tu tu hai wohi : Em, Am
    Dil ne jise : D
    Apna kaha : G
    Tu hai jahan, main hu wahan : Em, D
    Ab to ye jeena, tere bin hai saza : B, E
    Mil jayen jis tarah : F
    Do leheren jis tarah : G
    Fir ho na judaa, ha ye waada raha : Em, Am D, Em.

    =========================================================
    SlayeR RuleZ.
    ===========
     
    d_ist_urb_ed likes this.
  2. jayswami

    jayswami Blue J

    one advice.. please have one post per song, and name the song in the title.
    that way its easier to search and also get noticed.

    You akele hum chords are not 100% accurate..

    this is how i remember the song...

    Code:
     Akele hain 
     Em   D   C 
     
     To kya ghum hai 
     D        G
    
     Chahe to hamare bas me kya nahin 
      G      C        Bm     Am         Am
    
     Bas ek zara
                Em, D   C 
     Saath ho tera 
     D    Em    D   Cmaj7 (pause at C maj 7)
       
     Tere to hai hum 
                      Em   D     C
     Kab se sanam  
     D           Em   D      Cmaj7 
    
    
    I just quickly recorded the audio for the strumming..its kinda rough but u guys will get the idea... it might prove to be a challange for guys who r just starting out..
    but its a cool riff.

    the audio can be found at:
    http://www.indianguitartabs.com/showthread.php?p=49676#post49676


    Chord Chart:
    Em:x79987
    D:x57775
    C:x35553
    Cmaj7: xx5557 or 032000 (in the audio i have 2 tracks playing Cmaj 7 superimposed)
    Am:577555
     
  3. satan_rulez_u

    satan_rulez_u New Member

    greatttttttt work man
    i van to know how u playd those dil se ones in the same vay the chords u used !!!!!!!!!!!!!!!!
     
  4. Subhro

    Subhro Argentina lost :"(

    nice 1 Jay :)
     
  5. d_ist_urb_ed

    d_ist_urb_ed Genuflect b*tches!

    Amazing tabs@killer_instinct, loved playing Yeh wada raha:) Hafta play at a farewell, and you've been providing amazing tabs. Good rep and points from me:)
     
  6. killer_instinct

    killer_instinct New Member

    Thank you d_ist_urb_ed. Responses are VERY encouraging to me.
     
  7. jayswami

    jayswami Blue J

    yea dont mind my corrections.. i never praise anyone.
     
  8. killer_instinct

    killer_instinct New Member

    That's ok with me Mr. Jayswami. After all, we all learn from misktakes.
     
  9. its4ashish

    its4ashish New Member

    Thanks for sending this beautiful tab
     
  10. rajesh_puru

    rajesh_puru New Member

    great style and it really felt good..keep up the good work jayaswami
     

Share This Page