twinkle twinkle little star tabs

Discussion in 'English Guitar Tabs - Submit or Request' started by beginner_lavina, Jun 30, 2004.

  1. Have fun with this!!!

    |E--------------------------------------------
    |B--------------------------------------------
    |G--------------------------------------------
    |D--------------------------------------------
    |A--------------------------------------------
    |E-0-0-7-7-9-9-7--5-5-4-4-2-2-0--9-9-7-7-5-5-4



    |E--------------------------------------------
    |B--------------------------------------------
    |G--------------------------------------------
    |D--------------------------------------------
    |A--------------------------------------------
    |E--9-9-7-7-5-5-4--0-0-7-7-9-9-7--5-5-4-4-2-2-0
     
  2. Loverboy

    Loverboy New Member

    hey u sounds cute! :cool:
     
  3. rochakchauhan

    rochakchauhan New Member

    Lolzzzz

    Hey Lavina....Cute...Real cute...Now try this...Yankee Doodle went to town .....Gud Ol' American Jingle...N-JOY !!

    ----5----5-----7-----9------5-----9---7---5---------
    ------------------------------------------------------
    ------------------------------------------------------
    ------------------------------------------------------
    ------------------------------------------------------
    ------------------------------------------------------



    ---5---5---7---9----5--4----------------------------
    ------------------------------------------------------
    ------------------------------------------------------
    ------------------------------------------------------
    ------------------------------------------------------
    ------------------------------------------------------


    --5--5---7---9---10---9---7---5----------------------
    ------------------------------------------------------
    ------------------------------------------------------
    ------------------------------------------------------
    ------------------------------------------------------
    ------------------------------------------------------

    --4---0----2---4---5---5-----------------------------
    ------------------------------------------------------
    ------------------------------------------------------
    ------------------------------------------------------
    ------------------------------------------------------
    ------------------------------------------------------
     
  4. shahmyel

    shahmyel GuRu DaDa

    REally good work good tabs man
     
  5. sumit

    sumit HaNdS uPPP!!

    cute tabs man!!! sounds real soft
     
  6. rochakchauhan

    rochakchauhan New Member

    Thanks a ton guys !!....Iam glad u liked this tab !! n more comin up soon....
     
  7. amitn68

    amitn68 New Member

    Hey nice tunes both of u!!keep it up guys
     
  8. cooljeba

    cooljeba New Member

    nice work man.. it was good [:)]
     
  9. sukrut

    sukrut God Guitarist

    playin these tunes make me sound like a retard!!

    but none the less.....gr8 tunes!!!!! great tabbing!!!!


    keep it up!!!

    cheers!
    :beer:
     
  10. danjeev

    danjeev New Member

    gooooooooooddddd keep iit uppppppppp thanksssssssssss
     
  11. sachingairola

    sachingairola New Member

    heheh cool man.....sound so sweet........
     
  12. arunole

    arunole New Member

    hi nice work thr buddy....
     
  13. july27

    july27 New Member

    new to guitar

    hi buddy i am very much new to gutiar please tell me how to play 5--5--7--9--10
     
  14. hyderabadi

    hyderabadi New Member

    Learn here:
    http://www.indianguitartabs.com/showthread.php?t=152

    Hope this helps. You can also try searching for "Understanding guitar tabs" on google.

    Cheers
     

Share This Page