Tum Bin - Tum Bin

Discussion in 'Hindi Guitar Tabs - Submit or Request' started by umarboy, Aug 16, 2003.

  1. umarboy

    umarboy Tabber

    Movie = TUm Bin
    Song = Tum BIn
    Tabs made by Umar
    Comments @ umarboy@hotmail.com

    E-14-10---14-10--14-10--5-5-7-8-8-------------------------
    G-------------------------------------------------------------
    D-------------------------------------------------------------
    A-------------------------------------------------------------
    E-------------------------------------------------------------

    tum bin kya hai kya hai jeena etc etc

    E-8-8--8--12-12-12--15-14-12-10-----------------------------
    G----------------------------------------------------------------
    D----------------------------------------------------------------
    A----------------------------------------------------------------
    E----------------------------------------------------------------

    E-14-14-10-10-10--5-5-7---7-7-7-8--12-12-12--12-12-13
    G----------------------------------------------------------------
    D----------------------------------------------------------------
    A----------------------------------------------------------------
    E----------------------------------------------------------------

    tum bin jiya jaisey kaisy kaisy jiya jaye tum bin [REPEAT IT TWICE]

    E-10-10--10--7-7-8----8-8-8--12-12-12--15-14-12-10---
    G----------------------------------------------------------------
    D----------------------------------------------------------------
    A----------------------------------------------------------------
    E----------------------------------------------------------------

    aaja lot ker tu yea dil keh raha hai [play it twice]
     
  2. Zeus

    Zeus New Member

    Thanx m8:)
     
  3. great will try thm now.its gud in this format easy for new guitarists
     
  4. Rohan

    Rohan New Member

    A----------------------F#m--G-----------A
    tum bin kya hai kya hai jeena ,tum bin keh raha hai
    A-----------------D-----G------------A
    tum bin jiya jaisey kaisy kaisy jiya jaye tum bin
    A-------D------G----------Am
    aaja lot ker tu yea dil keh raha hai


    A---------------------Am----A-----------------E
    Kya kya na socha tha humne,kya kya the sapne sajaye

    The lyrics after this i dont remeber ,the chords are like

    D------------E-----------A then repeat.

    comment and reply
     

Share This Page