Tu tu hai wahi

Discussion in 'Hindi Guitar Tabs - Submit or Request' started by devilss_code, Mar 19, 2006.

  1. devilss_code

    devilss_code New Member

    hey people, this is my first submission.. do let me know if it sounds good to ur ears..:p:




    Am Dm
    tu tu hai wahi,

    G C
    dil ne jise apna kaha,

    Am G
    tu hai jaha, mein hu waha ,

    E
    ab toh yeh jina,

    C A
    tere bin hai saza..

    Bb Am
    mil jaye is tarah, do lehrein jis tarah,

    Am Dm
    phir ho na juda,

    G Am
    ha yeh wada raha...



    ;)
     
  2. Behush

    Behush New Member

    Hey pal check these chords posted by SOME OTHER GUY in this forum(Not by me;))... but i thought they wud be helpful to u..:)

    I have recording which is by me ... wud post it if u want...

    Here u go ->

    TU, TU HAI WAHI
    ===========================

    Vocal melody :

    Tu tu hai wahi, dil ne jise apna kaha
    e-----------------------------------------------------------------
    B----------------13-12-10---------------------12-----------------
    G-9-11h12p11-9-----------12-11----9-11-9------------------------
    D--------------------------------12--------12---------------------
    A-----------------------------------------------------------------
    E-----------------------------------------------------------------

    Tu hai jahan, main hu wahan, ab to ye jeena, tere bin hai saza
    e-----------------------------------------------------------------
    B-10----------------------------10----------------------12-10-9-9
    G----12-11h12-9----11h12p11-9----11-11-9-8-8---8-11---------------
    D-----------------------------------------------------------------
    A-----------------------------------------------------------------
    E-----------------------------------------------------------------

    Mil jayen jis tara, leheren jis tarah, fir ho na judaa
    e-----------------------------------------------------------------
    B-10---10-12-13-12-10---------10-12--------------------10---------
    G---------------------12---12-------12-11-9-11h12p11-9------------
    D-----------------------------------------------------------------
    A-----------------------------------------------------------------
    E-----------------------------------------------------------------

    Ha ye wada raha
    e-----------------------------------------------------------------
    B-----------------------------------------------------------------
    G-12-11-9h11----11-12p11p9----------------------------------------
    D------------12---------------------------------------------------
    A-----------------------------------------------------------------
    E-----------------------------------------------------------------

    Repeat tabs for continuation.

    Chords :

    Tu tu hai wohi : Em, Am
    Dil ne jise : D
    Apna kaha : G
    Tu hai jahan, main hu wahan : Em, D
    Ab to ye jeena, tere bin hai saza : B, E
    Mil jayen jis tarah : F
    Do leheren jis tarah : G
    Fir ho na judaa, ha ye waada raha : Em, Am D, Em.
     
  3. g0g0l

    g0g0l ! SpAm


    Pal, don't loose your heart, your version is not so bad at all! Although the scale is diff..

    One thing, you have made a mistake,

    it will be like this

    Am Fm
    tu tu hai wahi
     
  4. fat_kax

    fat_kax Kickin Ass Since 1989 !

    not bad - pretty close - and hey Behush- just whose chords ARE those - theyre awesomely accurate...
     
  5. g0g0l

    g0g0l ! SpAm

    ^^^^Yepp! I also agree...
    Those chords are truely awesome
     
  6. devilss_code

    devilss_code New Member

    hey guys... thanx for those replies... am just a beginner and yeah ur suggestions are goin to help me ..



    rock on !
     
  7. .:VinAY:.

    .:VinAY:. New Member

    quite good...appreciated!
     
  8. taquila

    taquila New Member

    My God.... none of the chords are correct!!!

    Moreover this song has been posted thousand times... why don't you see the past postings before adding a new one??

    The key is in Em. Progression Em/C/D/G, like -
    Em--------C---------D--------G--
    Tu Tu hai wohi Dil ne jise apna kaha..

    Got it?
     
  9. devilss_code

    devilss_code New Member

    hi taquila,
    ok i've got tht noted . thought it wasnt a big deal to post those chords though it was posted a thousand times b4.. ( after my post ofcourse the number goes to thousand and one ) ;)... thot evn my chords would work.. at a diff scale..

    anywayz
    thnx to u too
     
  10. Behush

    Behush New Member

    Check this out dude...

    Pal i guess u need to reconsider wht u said ....
    may be ur rite wid diff scale but here is how i play and its pretty much similar man.... may be correct or may be wrong ... put ur recording even.:)

    LINK : http://www.soundclick.com/bands/pagemusic.cfm?bandID=483868
     
  11. amit82cse

    amit82cse Silent observeR

    These are very good chords. I love the scale you have choosen and I prefer playing your scale.

    Good Job.
    Welcome to the Gang...keep posting good stuff...
     
  12. g0g0l

    g0g0l ! SpAm

    :shock:
    Scale is diff, but who said the chords are incorrect? It is really a shame the way you discouraged a new guitarist who has managed to post almost a perfect one.....
    I understand his feelings bcoz I am also a new guitarist...
     
  13. rakesh_sargam

    rakesh_sargam New Member

    hey i have one more version ,check this out

    scale is ofcourse Em
    Em DM7
    tu tu hai wahi
    Em DM
    dil ne jise , apna kaha
    Em7/GM Em
    tu hai jaha , mai hu waha
    Am BM B7 EM
    ab toe hai jeena , tere bin saja.

    Am DM7 GM Em
    mil jaye jis tarah , do lahrein is tarah
    Em7 Am Em DM GM Em
    phir ho naa juda , HA ye va da raha

    HEY i played it , it sounded to me quite good .coz i bring out chord after playing the lead .
     
  14. UjSen

    UjSen *#!EVIL*!!

    uhhhh I 've Never heard the song soo can't say anything.................
     
  15. devilss_code

    devilss_code New Member

    hey guys thnx for the good words..
    and rakesh, i shall try ur chords soon and letcha know
     
  16. .:SpY_GaMe:.

    .:SpY_GaMe:. New Member

    there is a part they play in the remix version on i think the bass strings

    can someone post that too???
     
  17. devilss_code

    devilss_code New Member

    hey rakesh , i guess ur chords need lil modification ..
     
  18. Joseph Antnony

    Joseph Antnony New Member

    Its in Em dude. Em/C/D/G for the first verse. Then Em/D/B/G/E (Major). This is the real thing, shifting from Em to E major. Then its F/C/G F/C/G Em/D.
     
  19. jazzbox

    jazzbox His X Ln C 1000CC

    fine ...


    will u guys please send tha STANZA of the song ..

    MAin awaz hon tu ...tu hai geet mera ..

    jahan se nirala ...man meet mera ...

    mil jay is tarhan ....do lehrain jis tarhan ...
     
  20. maddy09

    maddy09 New Member

    generally it sounds good in Em when it is original versions.
    but what you gave its totally awesome......kind of karaoke for this song.....lovely..........
    love to humm and play along with friends on this scale
     

Share This Page