Toxi City By Me(Faiq)

Discussion in 'IGT Soundtrack - Your Band, Your Gig, Your Music' started by faiqrock, Dec 21, 2005.

  1. faiqrock

    faiqrock XaiQ

    Hey Guys i played Toxicity....i tried my Best now its up 2 ya...wha u'll say i mean whts ur Comments
    so Plz Comments n Reps if u Want 2 :eek:: :eek::
    http://www.soundclick.com/faiq
     
  2. faiqrock

    faiqrock XaiQ

    17 views no reply:(
     
  3. har1s

    har1s <b>Untitled</b>

    hmm nice yaaar...but a bit different from the original...i mean after the intro, u shiftin between the chords pretty slowly...nice n e wayz :)
     
  4. faiqrock

    faiqrock XaiQ

    ya bro its a Rough 1 caz the intro tabs were wrong.....i saw the Tabs on Guitar Ultimate...the Tabs were
    |-----------------------------------------------|
    |-----------------------------------------------|
    |-----------------------------------------------|
    |-------7------7-----7-----7-----5-----5--------|
    |----5-----5------5-----5-----5-----7-----------|
    |-----------------------------------------------|

    |-----------------------------------------------|
    |-----------------------------------------------|
    |-----------------------------------------------|
    |-------10-----10-----10-----10-----10-----10---|
    |---/8------8------8------8------8------8-------|
    |-----------------------------------------------|

    ^^^^^but the Ultimate Guitar Chords are wrong .....


    i Downloaded the Concert of SYSTEM OF DOWN..the Guitar player was Playing these Tabs

    |-----------------------------------------------|
    |-----------------------------------------------|
    |-----------------------------------------------|
    |-------5------5-----5------5-----5------5------|
    |----3-----3------3-----3-----3------3----------|
    |-----------------------------------------------|

    |-----------------------------------------------|
    |-----------------------------------------------|
    |-----------------------------------------------|
    |-------8-----8-----8-------8--------8-----8---|
    |---/6------6------6------6------6------6-------|
    |-----------------------------------------------|

    So i will Record it again
     
  5. har1s

    har1s <b>Untitled</b>



    hmm yea...i found the same tabs @ ultimate guitar
     
  6. faiqrock

    faiqrock XaiQ

    well we can Play both of thm :)...caz Both r Correct
     
  7. faiqrock

    faiqrock XaiQ

    com on guys plz..........................comments yaar
     
  8. Alfons

    Alfons C.F.H

    dude ..!
    firstly the tabs were right . the tabs you found at Ultimate Guitar.com must be in another tuning but if your guitar is tunned to E then you should follow this
    |-----------------------------------------------|
    |-----------------------------------------------|
    |-----------------------------------------------|
    |-------7------7-----7-----7-----5-----5--------|
    |----5-----5------5-----5-----5-----7-----------|
    |-----------------------------------------------|

    |-----------------------------------------------|
    |-----------------------------------------------|
    |-----------------------------------------------|
    |-------10-----10-----10-----10-----10-----10---|
    |---/8------8------8------8------8------8-------|
    |-----------------------------------------------|


    Now about your recording
    since you were soo desperate on making people listen to this , atleast record it without any mistakes . Do use different tracks when you shift from a clean patch to a distorted one.
    And try PALM MUTTING when your playing the intro . And last but not the least dont try a song if you cant maintain its original tempo !!
     
  9. faiqrock

    faiqrock XaiQ

    alrite:$:$:.... :eek:: :eek:: :eek::
     
  10. rocker111

    rocker111 New Member

    good work:p: :p:
     
  11. faiqrock

    faiqrock XaiQ

    And Guys Tell U Some Thing The System Of Down Band Doo All There Songs On This Tuning
    Cgcfad..

    D|-----------------------------------------------|1st String
    A|-----------------------------------------------|2nd "
    F|-----------------------------------------------|3rd "
    C|-----------------------------------------------|4th "
    G|-----------------------------------------------|5th "
    C|-----------------------------------------------|6th "

    ;);)
     
  12. faiqrock

    faiqrock XaiQ

    Here U Go...wid Cgcfad Tuning....i Played The Live Version Of Toxi..this 1 Is Just A Clip...chk The Sound N Tell Me;)
     

Share This Page