TITAN Watches - Theme Song

Discussion in 'Hindi Guitar Tabs - Submit or Request' started by lprassanth, May 4, 2006.

  1. lprassanth

    lprassanth New Member

    this is the song that comes in the ad... now the ad is changed to a more pianolike version.. but the actual song that comes in the old ad. is what i suppose beethovan composed..

    play twice
    e-----------------------------------------------
    B-----------------------------------------------
    G-----------------------4----4---7-5-4------
    D---5--4-5--7--5-7------7--------------7---

    e-------------------------------------------------------------------------------
    B------8-8-8-8-7-5-------5-5-5-5-------------------------------------------
    G---------------------7--5------------7-5-4-----5-5-5-5-4-7----4-----------
    D---5-------------------------------------------7----------------5---7-5-4----
    and repeat the first tab once with a slower ending..
     
  2. vini

    vini Repeat Offender

    thanx for sharing

    reps
     
  3. lprassanth

    lprassanth New Member

    i already posted this in english n tamil forums.. this is the 3rd copy paste..
     
  4. krihith

    krihith New Member

    Super boss.... Thanks
     
  5. arunole

    arunole New Member

    thanks a lot.............
     
  6. amish_shah

    amish_shah New Member

    its a mozart composition,,,
     
  7. neyo_napster

    neyo_napster New Member

    awesome!!!
     
  8. axes2t2

    axes2t2 New Member

    Thank you.
     
  9. crusaderindia

    crusaderindia New Member

    titan ad theme

    here is a tab for titan ad theme which is more easy to play on guitar....i've attached guitar pro file too along with the it.plz do check it out and let me know about any corrections...


    Titan Ad Theme
    tabbed by CrusaderIndia

    Track 1
    Q E E Q E E Q E E E E E E Q E E Q E E
    E||------------------------|-------------------------|------------------------|
    B||------------------------|-------------------------|------------------------|
    G||------------------------|-------------0-----------|------------------------|
    D||-------------0-------0--|--2----0--2-----3--2--0--|-------------0-------0--|
    A||--3----2--3-------3-----|-------------------------|--3----2--3-------3-----|
    E||------------------------|-------------------------|------------------------|


    Q E E E E E E E E E E E E E E E E E E E E E E
    -------------------------|--------------------------|--------------------------|
    -------------------------|-----1--1--1--1--0--------|--------------------------|
    -------------0-----------|--------------------2--0--|-----2--2--2--2--0--------|
    --2----0--2-----3--2--0--|--------------------------|--3-----------------3--2--|
    -------------------------|--3-----------------------|--------------------------|
    -------------------------|--------------------------|--------------------------|


    E E E E E E E E E E E E H
    --------------------------|------------------------||
    --------------------------|------------------------||
    --------------------0-----|------------------------||
    --0--3--3--3--3--2--------|--2--0------------------||
    -----------------------3--|--------3--2--3~--------||
    --------------------------|------------------------||
     

    Attached Files:

  10. rishabh1901

    rishabh1901 New Member

    The best thing about your post was that, k you posted in GP5 file type...
     

Share This Page