Download IGT Android App Download IGT Android App

Tired Of Being Sorry - Enrique

Discussion in 'English Lyrics - Submit or Request' started by dhroov, May 23, 2008.

Download IGT Android App Download IGT Android App
  1. dhroov

    dhroov New Member

    Download IGT Android App I don't know why
    You want to follow me tonight
    When in the rest of the world
    With you whom I've crossed and I've quarreled
    Let's me down so
    For a thousand reasons that I know
    To share forever the unrest
    With all the demons I possess
    Beneath the silver moon

    Maybe you were right
    But baby I was lonely
    I don't want to fight
    I'm tired of being sorry

    Chandler and Van Nuys
    With all the vampires and their brides
    We're all bloodless and blind
    And longing for a life
    Beyond the silver moon

    Maybe you were right
    But baby I was lonely
    I don't want to fight
    I'm tired of being sorry
    I'm standing in the street

    Crying out for you
    No one sees me
    But the silver moon

    So far away – so outer space
    I've trashed myself – I've lost my way
    I've got to get to you got to get to you

    Maybe you were right
    But baby I was lonely
    I don't want to fight
    I'm tired of being sorry
    I'm standing in the street
    Crying out for you
    No one sees me
    But the silver moon
    (lalalala till end)
    Maybe you were right
    But baby I was lonely
    I don't want to fight
    I'm tired of being sorry
    I'm standing in the street
    Crying out for you
    No one sees me
    But the silver moon
     
    Download IGT Android App
  2. sheenu

    sheenu New Member

    Download IGT Android App tired being Sorry

    Hi All Great Musicians..
    can anybody give me guitar (lyrics) tabs of "tired being Sorry"
    I am beginer of guitar, have mugged up few songs to play, looking for tabs of this song..
    the format like:
    ---3-3-3-4-3-1---1-
    ----------------4-
     
    Download IGT Android App
  3. sankalp007

    sankalp007 New Member

    Download IGT Android App tired of being sorry tabs

    ------------------------------------------------|
    -8---8---8-9-8-6----6---------------------------|
    ------------------8-----------------------------|
    ------------------------------------------------|
    ------------------------------------------------|
    ------------------------------------------------|

    -8--8--8--8-h9-8--6-----------------------------|
    --------------------8--5------------------------|
    ------------------------------------------------|
    ------------------------------------------------|
    ------------------------------------------------|
    ------------------------------------------------|


    -8—-h6—-6--h4-----------------------------------|
    -9--h8--8--h6---------3--h4-h6-h4-----3h4h3-----|
    ------------------------------------------------|
    ------------------------------------------------|
    ------------------------------------------------|
    ------------------------------------------------|
     
    Download IGT Android App
  4. susanthom

    susanthom New Member

    Download IGT Android App
  5. Vader

    Vader New Member

    Download IGT Android App
    -3---3---3-4-3----------------------------------|
    ---------------6-4-4/6--------------------------|
    ------------------------------------------------|
    ------------------------------------------------|
    ------------------------------------------------|
    ------------------------------------------------|

    -3--3--3--3-h4----------------------------------|
    ---------------6--4-----------------------------|
    --------------------5---------------------------|
    ------------------------------------------------|
    ------------------------------------------------|
    ------------------------------------------------|


    --8/6—-6/4--4-----------------------------------|
    --------------------3--h4-h6-h4-----3h4h3-----|
    ------------------------------------------------|
    ------------------------------------------------|
    ------------------------------------------------|
    ------------------------------------------------|


    Hope this helps!
     
    Download IGT Android App
  6. moniquebliss

    moniquebliss New Member

    Download IGT Android App The song is definitely great. I really love each line but sorry I don't have guitar tabs for this particular song. Anybody here can help him?
     
    Download IGT Android App
Download IGT Android App

Share This Page

Download IGT Android App Download IGT Android App