Theme of titan watches....

Discussion in 'English Guitar Tabs - Submit or Request' started by Natasia, Feb 19, 2004.

  1. Natasia

    Natasia ...

    :) THEME OF TITAN WATCHES....(on c major scale...) :)


    e ---------------------------------------------------------------
    B ---------------------------------------------------------------
    G ---------------------------0----------------------------------
    D -----------0---0-2--0-2----3-2-0----------------------------------
    A ---3-2-3---3---------------------------------------------------
    E ---------------------------------------------------------------


    e ---------------------------------------------------------------
    B ---------------------------------------------------------------
    G ---------------------------0---------------------------------------
    D ---------- 0----0-2-0-2----3-2-0---------------------------------
    A ---3-2-3---3---------------------------------------------------
    E ---------------------------------------------------------------


    e --------------------------------------------------------------
    B ------1111-0--------------------------------------------------
    G ----------------2-0-------2222-0---------------------0---------------
    D ----------------------3--------------3-2--0-3333-2---------2-0---------
    A ---3--------------------------------------------------------3--------3-2-3---
    E --------------------------------------------------------------


    Do let me know if u can tab the tune that follows and if there r any errors in the tabs above....... :eek:
     
  2. scot_hacker

    scot_hacker New Member

    Titan

    Sounds GREAT on the piano.

    When the first line is repeated make quick modification in the repeat. Now i really can't express this here so take a look at the staff in the picture.

    After the part you've given,
    play the major quickly:
    c d e f g a b c

    then A minor:
    a b c d e f g a

    then:
    g c d b c

    (the c is the one above the g and d and everything. sorry its a pain to write it out in tab ;) )

    Try it on a keyboard or something.
     

    Attached Files:

  3. wisevijay

    wisevijay newbombayrox

    Grreat Work Man!Keep it up!:beer:
     
  4. Natasia

    Natasia ...

    THANKS DUDE....WILL PLAY IT AND LET U KNOW WHETHER IT SOUNDS ALRIGHT......

    :beer:
     

Share This Page