Teri Yaad intro

Discussion in 'Pakistani Guitar Tabs - Submit or Request' started by Taifi, Mar 12, 2005.

  1. Taifi

    Taifi New Member

    hey i worked on the intro of teri yadd(jal). here it is.

    e---7-12-12-8-8-10-8-8-7-5-3-2-00-22-7

    to make it more effective also pluck the open E string with ur thumb.
    corrections welcome
     
  2. BIG_EVIL

    BIG_EVIL Guitaring Machine

    yaar...........my intro was better..not saying these are bad
     
  3. raj_aryan

    raj_aryan Moderator

    @taifi- ure tabs r nice..thnks
    @big evil- can u post the tabs on this thread again..we will wait fr it.
     
  4. BIG_EVIL

    BIG_EVIL Guitaring Machine

    e-7/12--12-8-8-10-8-7-7h8p7-7-5-3-2-0-0-2-3-3-10--
    B----------------------------------------------------
    G----------------------------------------------------
    D-----------------------------------------------------
    A-----------------------------------------------------
    E-----------------------------------------------------

    these were my tabs!!
     
  5. raj_aryan

    raj_aryan Moderator

    ok..! Then Check Out These

    e--4s9-9-9-5-5-7-5-4--4h5h4--2-0------------------7------
    B----------------------------------4--2-2-2-4-5------------

    hwz abt this.
     
  6. Quadrophenia

    Quadrophenia New Member

    whats rong with my intro ? :O
     
  7. Taifi

    Taifi New Member

    @ big evil : yeah i think ur tabs r better
    @ raj aryan : ur tabs were good bro
    @Quadrophenia : dude were is ur intro
     
  8. BIG_EVIL

    BIG_EVIL Guitaring Machine

    ahhaaha......thx taifi
     
  9. raj_aryan

    raj_aryan Moderator

    Grrrrrrrrrrrr..hmmmmmmmmmmmmmmm........@big_evil
    Jst Kiddin...
    Anywyzz ,,quardrophenia, Whrz Ure Tabs.. ?
     
  10. Quadrophenia

    Quadrophenia New Member

    sorry u guys,.i had posted these in the earlier form

    how i think the intro goes..which seems right.

    e---------12-12---10-10-10---8--7-----------------------------------10~-
    b-8s12------------------------------10h12-12-10 9-7--------7--10--------
    g-------------------------------------------------------9-9---------------
    second time around is the same but the ending is with a a pull off of some wierd kind..

    so when he finsihs at the 10 ~ he plays this before going into the riff
    e----10~--10-9-------------------
    b---------------10-9---7----------

    i have decided that even these arent accurate:p but yes i can play it ;)
     
  11. Quadrophenia

    Quadrophenia New Member

    instead of the 9--9 on the g string...he playes -7--5 555 77788 on the b string listen to get the rythem right and then e-5-- and then 10~ on e
     
  12. Taifi

    Taifi New Member

    guys i dont think therz a slide at the very beginning
     
  13. BIG_EVIL

    BIG_EVIL Guitaring Machine

    there is...
     
  14. nadish

    nadish Active Member

    I found these tabs, better than urs...

    -------------------------------------
    NOT TABBED BY ME
    -------------------------------------

    e-----7s12-12--8-8-10-8-7--7h8-7-5-3-2-0-0-0-2-3-10------|
    b--------------------------------------------------------|
    G--------------------------------------------------------|
    D--------------------------------------------------------|
    A--------------------------------------------------------|
    E--------------------------------------------------------|


    e-----7s12-12--8-8-10-8-7--7h8-7-5-3-2-0-0-0-2-3-10------|
    b--------------------------------------------------------|
    G--------------------------------------------------------|
    D--------------------------------------------------------|
    A--------------------------------------------------------|
    E--------------------------------------------------------|
     
  15. Taifi

    Taifi New Member

    theyre good too.
     
  16. BIG_EVIL

    BIG_EVIL Guitaring Machine

    my
    tabs are better
     
  17. Orange Guitar

    Orange Guitar IGT's ALLROUNDER

    e|-7s12---12-12--8-8-10-8-7-7h8-7-5-3-2-0--0-0-2h3-10|

    Howz this???? :rule:
     
  18. BIG_EVIL

    BIG_EVIL Guitaring Machine

    almost like mine
     
  19. Orange Guitar

    Orange Guitar IGT's ALLROUNDER

    @Bigevil: what is in ur mind......"I m the best"...this is in ur mind??...if this is the case, then u r making a mistake ...anyways....my tabs rock!!
     
  20. Taifi

    Taifi New Member

    every ones tabs rock. my tabs suck. listen orange ur tabs r almst identical to nadish's tabs xcept that therz a hammer on in the end
     

Share This Page