Tere bina solo , Fuzon

Discussion in 'Pakistani Guitar Tabs - Submit or Request' started by aysh, Jan 7, 2006.

  1. aysh

    aysh -|h3 ori9in4| (ui!aris-|-

    hey guys this is the solo for 'tere bina' by fuzon ..

    ----------------------------------------------------------------------------------------
    ---------------------------------------------------------------------------------
    -16s17-16--14--16--16s17-16--14s12 12~---------------------------
    --------------------------------------------------14s12s14--12s10s12-s17-16~--
    --------------------------------------------------------------------------------------------
    ----------------------------------------------------------------------------------------

    ----------------------------------------------------------
    -----------------------------------15---------------------15-17-----------------------
    ---------------12s14-12~--s16------16--14s12--s16----------14-16-14--12~s------
    --15-16-17---------------------------------------------------------------------------
    -----------------------------------------------------------------------------------------
    --------------------------------------------------------------------------------------------

    --------------------14-15-------------------------------------------------------------------
    --15b17b15b17-----------12-13-15-15~----------------------------------------------
    -------------------------------------------14b16--14s12s14------------------------
    --------------------------------------------------------------------------------------------
    -----------------------------------------------------------------------------------------
    --------------------------------------------------------------------------------------------

    -----------------------------------------------------------------------------------------
    -----------15--17--19s20--19s20--19b20b19--17-------------------------
    --14s16------------------------------------------------14~------------------------
    -------------------------------------------------------------------------------------------
    --------------------------------------------------------------------------------------------
    --------------------------------------------------------------------------------------------


    try it and tell me if its ok ..
     
  2. larsan

    larsan K-Dash

    thanksssss thousand time u r ma guru:)
     
  3. mr singh

    mr singh New Member

    ummmm.... ok....
     
  4. larsan

    larsan K-Dash

    just try to do ankhon ke saga plzzz:)
     
  5. mr singh

    mr singh New Member

    um... go 4 it?
     
  6. Quadrophenia

    Quadrophenia New Member

    nice one nemo..heard the recording..really well done. nice work.
     
  7. aysh

    aysh -|h3 ori9in4| (ui!aris-|-

    thx quad !

    larsan dude i'll give it a try .. if u want i can post the two solos in anjaane (strings) ..
     

Share This Page