Tere Bina From Hydrabad Blues 2

Discussion in 'Hindi Guitar Tabs - Submit or Request' started by Rohan, Jul 8, 2004.

  1. Rohan

    Rohan New Member

    Nice song i got from a site...



    Fuzon - Teray Bin

    CHORDS:
    Cadd9 G D Am
    x32030

    [CHORUS 1]:
    Cadd9 G D
    Teray binaaaaaaaa jiya nahee jaye
    Cadd9 G D
    Teray binaaaaaaaa jiya nahee jaye
    Cadd9 G D
    Teray hee mainaaaay hain sapnay sajaye
    Cadd9 G D
    Teray hee mainaaaay hain sapnay sajaye

    [CHORUS 2]:
    D
    Teray bin aye sanam
    G
    Kya khushi kaisay ghum
    Cadd9 G
    Tu chalay aaye joooooo
    D D Cadd9
    Jee uthay phir se hum

    Am G D
    Tu jo naheen to kya hai ghum
    Am G D
    Tu jo naheen to kya hai ghum

    Cadd9 G D
    Teray binaaaaaaaa jiya nahee jaye
    Cadd9 G D
    Teray binaaaaaaaa jiya nahee jaye
    Cadd9 G D
    Teray hee mainaaaay hain sapnay sajaye
    Cadd9 G D
    Teray hee mainaaaay hain sapnay sajaye


    [CHORUS REPEAT]:
    D
    Teray bin aye sanam
    G
    Kya khushi kaisay ghum
    Cadd9 G
    Tu chalay aaye joooooo
    D D Cadd9
    Jee uthay phir se hum
    Am G D
    Tu jo naheen to kya hai ghum
    Am G D
    Tu jo naheen to kya hai ghum

    Cadd9 G D
    Teray binaaaaaaaa jiya nahee jaye
    Cadd9 G D
    Teray binaaaaaaaa jiya nahee jaye
    Cadd9 G D
    Teray hee mainaaaay hain sapnay sajaye
    Cadd9 G D
    Teray hee mainaaaay hain sapnay sajaye


    [REPEAt WITH RAAG]: x 4 5 times
    D
    Tu nahin to mera dil udaas
    Cadd9
    Mujhay har ghari hai bass teri ass
    G
    Mera dil kahay tu rahay paas paas
    Cadd9 D
    yay hai aisa dewaana

    Cadd9 G D
    Teray binaaaaaaaa jiya nahee jaye
    Cadd9 G D
    Teray binaaaaaaaa jiya nahee jaye
    Cadd9 G D
    Teray Bina, Teray Bina Teray Bina } x 4 times

    ENDING:
    Cadd9 G Am
    Teray binaaaaaaaa jiya nahee jaye.
     
  2. highwayman

    highwayman Eternal Bachelor ! ! !

    the songs real nice....i 'll try out the chords thanks for posting them.
    cheers..
     
  3. urmilus

    urmilus New Member

    he man song is really nice. thnx 4 ur hard work. would u pls tab that song.. pls playin lead 4 this song will really rock
     
  4. ananth222

    ananth222 Beginner

    I liked the theme from Hydrabad blues 1.. any idea where I can hear it online?
     
  5. alex

    alex New Member

    buddy ! u r an old member- i would request you to pls check the site - before posting , we already has two posting with the same chords. If anything - differnet!! then its most welcome...

    right seniors ........ :think:
     
  6. chemical_ali

    chemical_ali New Member

    hey Rohan,

    nice song 2 post yaar.but can u explain what 'Cadd9 G D Am
    x32030' means? what is Cadd9 and x32030?
     
  7. Rohan

    Rohan New Member

    Hey Ali,
    Cadd9 G D Am these are the chords.And 'x32030' is the finger position to play Cadd9 chord.
    Means "E6-x(dont play this string),A-3,D-2,G-0,B-3,E-0"
    Download a chords chart and u'll understand...
     
  8. CycleOfFifth

    CycleOfFifth New Member

    Any chance someone can post the strumming pattern in terms of U (for up) and D (for down).


    thanks
     
  9. gautam_njoy

    gautam_njoy New Member

    Tabs of tere bina...

    Hey i have the tabs for this song... i dont know whether its put up but m juz providing incase it isnt...

    Fuzon- Tere Bina (tabs) melody

    --------------------------------------------------------------------------------

    h-hammer on
    /-down slide
    \-up slide
    v-bend the note


    E------3-1-------------------
    B----3-------5h6-5-3-0-3----
    G--5-------------------------
    Teray binaaa jiya nahee jaye

    E------3-1-------------------
    B----3-------5/6-5-3-0-3----
    G--5-------------------------
    Teray binaaa jiya nahee jaye

    E---------------------------------
    B--7-7-5-3h5--8-8-10-8-7v-3v----
    G---------------------------------
    Teray hee mainaaaay hain sapnay sajaye x2

    E---3-0-3-6-5----
    B--5--------------
    G-----------------
    Teray bin aye sanam

    E---------------------
    B--5-5-5--3-8-6------
    G---------------------
    Kya khushi kaisay ghum

    E------------------
    B--6-6-6--5-8-6----
    G------------------
    Tu chali aaye joooooo

    E-----------------
    B--6-6-6--8-6-3---
    G------------------
    Jee uthay phir se hum


    E-----5-5h6-5----------
    B--6-8--------6-5-6/8--
    G-----------------------
    Tu jo naheen to kya hai hum

    Note: The part below needs to played real fast, i did tried to put in the
    number of times notes(8 6 5) needs to be played - but you can change it as per the tone of the song.

    E----------------------------
    B--6/8-88-888-8-88-88-88---
    G----------------------------
    Tu nahin to mera dil udaas

    E-----------------------------------
    B--88-8\6-66-666-6-66-66----------
    G----------------------------------
    Mujhay har ghari hai bass teri aas

    E----------------------------------
    B--66-6/5-55-555-5-55-55---------
    G----------------------------------
    Mera dil kahay tu rahay paas paas

    E-----------------------------
    B--5-5-5-5/6--8/10\8-8-------
    G-----------------------------
    yay hai aisa dewaana


    Lemme know how it is... Anyways tab it and njoy!!! :rock:
     

Share This Page