Tabs Submission : Zara zara bahekta hai - REHNA HAI TERE DIL MEIN

Discussion in 'Hindi Guitar Tabs - Submit or Request' started by amit82cse, Jul 7, 2005.

  1. amit82cse

    amit82cse Silent observeR


    Music
    -3-3-3-----------------------------------------------
    -------6-4--3-3-3--3-4-6--4--------------------------
    ----------------------------5------------------------
    -----------------------------------------------------
    -----------------------------------------------------
    -----------------------------------------------------

    ---------------3~--6~--8/10~--8\6-4-3---4-3---3-4-----------
    ---4~--4-6~--6------------------------------6-------4-3-----
    -5----------------------------------------------------------
    ------------------------------------------------------------
    ------------------------------------------------------------
    ------------------------------------------------------------

    Zara zara bahekta hai, mahekta hai
    -----------------------------------------------------
    -3-4--3-4--4-3-4-6--3-4--4-3-4-6--3-4----------------
    -----------------------------------------------------
    -----------------------------------------------------
    -----------------------------------------------------
    -----------------------------------------------------

    Aaj to mera tan badan, main pyaasi hoon
    -------3---------------------------------------------
    -3-3-6---4-3--4-3-4--4-3-4-6--3-4--------------------
    -----------------------------------------------------
    -----------------------------------------------------
    -----------------------------------------------------
    -----------------------------------------------------

    Mujhe bhar le apni baahon mein
    -----------------------------------------------------
    -4-3-4-6--3-4----4-3----3----------------------------
    ---------------5------5---3--------------------------
    -----------------------------------------------------
    -----------------------------------------------------
    -----------------------------------------------------

    Hai meri kasam tujhko sanam, door kahin na jaa
    -----------------------------------------------------
    ------4-3-----3---------------3-3--------------------
    -5--5----3--3---5------5-3--------5-5----------------
    ------------------6--6-----5-------------------------
    -----------------------------------------------------
    -----------------------------------------------------

    Yeh doori kehti hai paas mere aaja re

    -----------------------------------------------------
    ------4-3-----3---------------3-3--------------------
    -5--5----3--3---5------5-3--------5-5----------------
    ------------------6--6-----5-------------------------
    -----------------------------------------------------
    -----------------------------------------------------


    Yunhi baras baras kaali ghata barse
    --------3----3---3---3-------------------------------
    ---4--6----6---6---6----4-3--------------------------
    -5---------------------------------------------------
    -----------------------------------------------------
    -----------------------------------------------------
    -----------------------------------------------------

    Hum yaar bheeg jaaye is chaahat ki baarish mein
    -------------------------------------3-4----3--------
    ---4-4--4-6--3-4-------6--6-6-6--3-6------6----------
    -5---------------5---5-------------------------------
    -----------------------------------------------------
    -----------------------------------------------------
    -----------------------------------------------------

    Meri khuli khuli laton ko suljhaaye
    --------3----3--8-8---3---3--------------------------
    ---4--6----6--------6---6----4-3---------------------
    -5---------------------------------------------------
    -----------------------------------------------------
    -----------------------------------------------------
    -----------------------------------------------------

    Tu apni ungliyon se main to hoon isi khwaahish mein
    -------------------------------------3-4----3--------
    ---4-4--4-6--3-4-------6--6-6-6--3-6------6----------
    -5---------------5---5-------------------------------
    -----------------------------------------------------
    -----------------------------------------------------
    -----------------------------------------------------

    Sardi ki raaton mein hum soye rahe ek chaadar mein
    ---8-8------10-10------11-11--11-10-8--------8-8-----
    -8-----8--8-------8--8-----------------11-11---------
    -----------------------------------------------------
    -----------------------------------------------------
    -----------------------------------------------------
    -----------------------------------------------------

    Hum dono tanha ho, na koi bhi rahe is ghar mein
    ---8-8------6-6------4-3-----------------------------
    -8-----8--8-----6--6-----6-4--3-3-4-3----------------
    -----------------------------------------------------
    -----------------------------------------------------
    -----------------------------------------------------
    -----------------------------------------------------

    Zara zara bahekta hai, mahekta hai
    Aaj to mera tan badan, main pyaasi hoon
    Mujhe bhar le apni baahon mein
    Aaja re aa re
    Tadpaaye mujhe teri sabhi baatein
    Ek baar ae deewane jhootha hi sahi pyaar to kar
    Main bhooli nahin haseen mulaaqaatein
    Bechain karke mujhko mujhse yun na pher nazar
    Roothega na mujhse, mere saathiya yeh vaada kar
    Tere bina mushkil hai jeena mera mere dil mein
    (Zara zara bahekta hai, mahekta hai
    Aaj to mera tan badan, main pyaasi hoon
    Mujhe bhar le apni baahon mein
    Hai meri kasam tujhko sanam, door kahin na jaa
    Yeh doori kehti hai paas mere aaja re
    Aaja re, aaja re, aaja re
     
    aeg0 likes this.
  2. vini

    vini Repeat Offender

    amit all the tabs are fine...but the first 2 riffs..didnt ring a bell...thats the intro right??

    tahda!!
     
  3. amit82cse

    amit82cse Silent observeR

    Yeah thats the intro tune played inbetween the song as well and there are two many frequent notes in it. So i tabbed the most prominent ones. Timing and pauses are going to do magic here. You have to listen to the song to play it properly.
     
  4. vini

    vini Repeat Offender

    ok..iL try again sumtime later!! :grin:

    tahda!!
     
  5. amit82cse

    amit82cse Silent observeR

    Here is recording of intro.
     

    Attached Files:

  6. vini

    vini Repeat Offender

    pretty neat and precise..thanx bro! :)

    tahda!!
     
  7. anirban.d.das

    anirban.d.das New Member

    intro aint entirely right bro
    u missed the 4 note on the 1st string for one
    -3-3-3-4----------------------------------------------
    -----------6-4-3---3-4-6--4-3--1----------
    ----------------------------------------------------
    -----------------------------------------------------
    -----------------------------------------------------
    -----------------------------------------------------


    i play it like this....
    nice song though
     
  8. DRBILLA

    DRBILLA New Member

    greaty pa g
     
  9. annuj

    annuj New Member

    ****ing song :cen:
     
  10. aeg0

    aeg0 Guitarıng Alchemist

    great work...u need some practise and the right timing though....
     
  11. Aka Oz

    Aka Oz /\K/\ - Ozy

    gr8 wrkkkkkkk amit
     
  12. dark_angel

    dark_angel New Member

    Amit...Tusi gr8 ho...
    Xlent Job done...
     
  13. Arka

    Arka New Member

    amazing job amit keep it up.
     
  14. amit82cse

    amit82cse Silent observeR

    Thanks guys....
     
    strings likes this.
  15. strings

    strings New Member

    Excellent Audio...........reps For U
     
  16. amit82cse

    amit82cse Silent observeR

    thanks @strings.
     
  17. anuragknathan

    anuragknathan New Member

    Ya man u rock
     
  18. tejash_p_shah

    tejash_p_shah New Member

    gr8 job thanks
     
  19. guitarist_gal

    guitarist_gal New Member

    hey the intro does nt sound right to me....i tried it and im posting the recording...post ur commets pls...take care..
    http://www.soundclick.com/rinky
     
  20. gagan_me.com

    gagan_me.com New Member

    notations

    Hi,Gagan this side i new to this community can you please provide me the notations for this song,i am not asking the chords configuration but the notataions in vertical order,i hope you got it.
     

Share This Page