Tabs Submission : Mohabbat Ho Na Jaye - Kasoor

Discussion in 'Hindi Guitar Tabs - Submit or Request' started by amit82cse, Jul 6, 2005.

  1. amit82cse

    amit82cse Silent observeR


    Music
    -12-11----12--11----12--11-12-12-14-14--------11-------
    -12----14--------14---------------------12-14----------
    -13----------------------------------------------------
    -------------------------------------------------------
    -------------------------------------------------------
    -------------------------------------------------------

    -12-11----12--11----12--11-12-12-14-14--12~~~----------
    -12----14--------14------------------------------------
    -13----------------------------------------------------
    -------------------------------------------------------
    -------------------------------------------------------
    -------------------------------------------------------

    -------7--------7--------7----------4------------------
    -5-4-5----5-4-5----5-4-5----5-4-5-7---7p5--------------
    -------------------------------------------------------
    -------------------------------------------------------
    -------------------------------------------------------
    -------------------------------------------------------

    -------7--------7--------7----------4------------------
    -5-4-5----5-4-5----5-4-5----5-4-5-7---7p5--------------
    -------------------------------------------------------
    -------------------------------------------------------
    -------------------------------------------------------
    -------------------------------------------------------

    --MALE--
    Hey la la la la, la la la la, la la la la la la
    -12--14-12-14-12--14-12-14-12--12-12-11--------11------
    ----------------------------------------14--14----14---
    -------------------------------------------------------
    -------------------------------------------------------
    -------------------------------------------------------
    -------------------------------------------------------

    La la la la, la la la la, la la la la la la
    -------------------------------------------------------
    -16-14-16-14---16-14-16-14--14-14-12-------14-12-------
    -------------------------------------14-14-------------
    -------------------------------------------------------
    -------------------------------------------------------
    -------------------------------------------------------

    Dekha jo tumko, yeh dil ko kya hua hai
    --------------------------4--4----------------------
    -4-5--7-4-5--7-4-5--5-7-7------7--------------------
    ----------------------------------------------------
    ----------------------------------------------------
    ----------------------------------------------------
    ----------------------------------------------------

    Meri dhadkanon pe yeh chhaaya kya nasha hai, haan
    ------------------------------4--4------------------
    -4-5--5-7-5-4-5--7-4-5--5-7-7------7---------5------
    ----------------------------------------------------
    ----------------------------------------------------
    ----------------------------------------------------
    ----------------------------------------------------

    --FEMALE--
    Dekha jo tumko, yeh dil ko kya hua hai
    Meri dhadkanon pe yeh chhaaya kya nasha hai, haan

    --MALE--
    Mohabbat ho na jaaye, deewana kho na jaaye
    -12-12-14-12-11--11-12-12-12----12-12-14-12-11--11-12-12-12--
    -------------------------------------------------------------
    -------------------------------------------------------------
    -------------------------------------------------------------
    -------------------------------------------------------------
    -------------------------------------------------------------

    Sambhaaloon kaise isko, mujhe tu bataa, haan
    -12-12-14-12-11--11-12-12-12------11----12--------11---------
    -------------------------------12----12----14--14------------
    -------------------------------------------------------------
    -------------------------------------------------------------
    -------------------------------------------------------------
    -------------------------------------------------------------

    --FEMALE--
    Mohabbat ho na jaaye, deewana kho na jaaye
    Sambhaaloon kaise isko, mujhe tu bataa

    --MALE--
    Dekha jo tumko, yeh dil ko kya hua hai

    --FEMALE--
    Meri dhadkanon pe yeh chhaaya kya nasha hai, haan

    --MALE--
    Bheegi bheegi alkon se, chori chori palkon se
    -------------------------------------------------------------
    -7-9-9-9--7-9-9-9--7-9-9-9--7-9-9-9--------------------------
    -------------------------------------------------------------
    -------------------------------------------------------------
    -------------------------------------------------------------
    -------------------------------------------------------------

    Kyoon mera sapna churaaye
    -----7-------------------------------------------------------
    -9-9---10-9-7-----7------------------------------------------
    --------------9-9--------------------------------------------
    -------------------------------------------------------------
    -------------------------------------------------------------
    -------------------------------------------------------------

    Jhunki jhunki ankhiyon se, dheere dheere batiyon se
    -----------------------7--7----------------------------------
    -10-10-10-10--10-10-10------9-9-9--9-9-9-7-------------------
    -------------------------------------------------------------
    -------------------------------------------------------------
    -------------------------------------------------------------
    -------------------------------------------------------------

    Kyoon mujhe apna banaaye
    -------------------------------------------------------------
    -7-9-9-7--7-9-9--7-9p7---------------------------------------
    -----------------------9-------------------------------------
    -------------------------------------------------------------
    -------------------------------------------------------------
    -------------------------------------------------------------

    --FEMALE--
    Meri nazron pe chhaaye, khushboo ke jaise aaye
    Mera tan mann mahekaaye
    Saanson mein yeh pal pal jaane kaise halchal
    Kuch bhi samajh mein na aaye
    Sharaarat ho na jaaye, mohabbat ho na jaaye
    Sambhaaloon kaise isko, mujhe tu bataa

    --MALE--
    Sharaarat ho na jaaye, mohabbat ho na jaaye
    Sambhaaloon kaise isko, mujhe tu bataa

    --FEMALE--
    Meri hai yeh mushkil, ab to yeh mera dil
    Bas mein huzoor nahin hai
    Itna bataa de mujhe kaise samjhaaoon
    Tujhe mera yeh kasoor nahin hai

    --MALE--
    Chaahe hum chaahe bhi to pehre lagaaye bhi to
    Kaise din raat ko roke
    Aag bina yeh jale, zor na koi chale
    Kaise jazbaat ko roke
    Yun chaahat ho na jaaye, mohabbat ho na jaaye
    Sambhaaloon kaise isko, mujhe tu bataa, haan

    --FEMALE--
    Yun chaahat ho na jaaye, mohabbat ho na jaaye
    Sambhaaloon kaise isko, mujhe tu bataa
    Dekha jo tumko, yeh dil ko kya hua hai

    --MALE--
    Meri dhadkanon pe yeh chhaaya kya nasha hai, haan

    --FEMALE--
    Mohabbat ho na jaaye, deewana kho na jaaye
    Sambhaaloon kaise isko, mujhe tu bataa

    --MALE--
    Mohabbat ho na jaaye, deewana kho na jaaye
    Sambhaaloon kaise isko, mujhe tu bataa
     
  2. faiqgaint.

    faiqgaint. .: Fat Ass Mama's Boy :.

    shararti bachay buhat khoob hamain acha laga laga raho
     
  3. akkyy21

    akkyy21 #%@!$&

    @amit - nice tabs man
    @faiq - wats shararti in it man??? :-s
     

Share This Page