Tabs Submission : Kabhi kabhi mere dil mein khayaal aata hai - Kabhie Kabhie

Discussion in 'Hindi Guitar Tabs - Submit or Request' started by amit82cse, Jun 24, 2005.

  1. amit82cse

    amit82cse Silent observeR


    Kabhi kabhi mere dil mein khayaal aata hai
    -----------------------------------------------
    -----------------------------------------------
    --5-5h4-7-5-------------7-55-------------------
    ------------77-55-7--55-------55-7p5-----------
    -------------------------------------8---------
    -----------------------------------------------


    Ki jaise tujhko banaya gaya hai mere liye
    -----------------------------------------------
    -----------------------------------------------
    -----------------------------------------------
    --77-7-55-7-7-55-7--5-7p5----5-----------------
    --------------------------88---88-8-7-5--------
    -----------------------------------------------


    Tu abse pehle sitaaron mein bas rahi thi kahin
    -----------------------------------------------
    -----------------------------------------------
    --5-5---4-5-5--55--5/8~~\5-55-5-45-4-5---------
    ------7--------------------------------7-------
    -----------------------------------------------
    -----------------------------------------------


    Tujhe zameen pe bulaya gaya hai mere liye
    -----------------------------------------------
    -----------------------------------------------
    -----------------------------------------------
    --77-7-55-7-7-55-7--5-7p5----5-----------------
    --------------------------88---88-8-7-5--------
    -----------------------------------------------


    Kabhi kabhi mere dil mein khayaal aata hai
    Ki ye badan ye nigaahein meri amaanat hain
    Ki ye badan ye nigaahein meri amaanat hain
    Ye gesuon ki ghani chhaon hain meri khatir
    Ye honth aur ye baahein meri amaanat hain
    Ye honth aur ye baahein meri amaanat hain


    Kabhi kabhi mere dil mein khayaal aata hai
    -----------------------------------------------
    -----------------------------------------------
    -----------------------------------------------
    -------5-55-55-5-55-5-5h7p5---5-77-------------
    --88-8----------------------8------------------
    -----------------------------------------------


    Ki jaise bajti hain shehnaaiyaan si raahon mein
    -----------------------------------------------
    -----------------------------------------------
    -----------------------------------------------
    --77-5-7----------88-88-8-7-78-5---------------
    ---------888-88-8------------------------------
    -----------------------------------------------


    Suhaag raat hain ghoonghat utha raha hoon main
    -----------------------------------------------
    ---------------5-------------------------------
    --55-5-7-77--5---7-55-5-4-5-4h5----------------
    --------------------------------7--------------
    -----------------------------------------------
    -----------------------------------------------


    Simat rahi hai tu sharma ke apni baahon mein
    -----------------------------------------------
    -----------------------------------------------
    -----------------------------------------------
    --77-7-55-7-7-55-7--5-7p5----5-----------------
    --------------------------88---88-8-7-5--------
    -----------------------------------------------
     
    anirban.d.das likes this.
  2. Sledgehammer

    Sledgehammer New Member

    Great work!!

    Great work man! Kudos to you!!

    Hey, can you tab the song "uthay sab ke kadam..." from the movie "baton baton main"
     
  3. amit82cse

    amit82cse Silent observeR

    tomorrow...its bed time now... :)
     
  4. amit82cse

    amit82cse Silent observeR

    can you post the complete lyrics..it will help me...
     
  5. Sledgehammer

    Sledgehammer New Member

  6. slipknot_555

    slipknot_555 RuHH..

    u rock man!!!! was tabbin n lookin for this one long time !!! thxs amit
     
  7. slipknot_555

    slipknot_555 RuHH..

    accurate tabs!!!!!! u sure have good tabbin skills!!!! :nw:
     
  8. slipknot_555

    slipknot_555 RuHH..

    ahhh a request.......... can u tab dil chahta hai's -- kaisi hai yeh ruut
     
  9. amit82cse

    amit82cse Silent observeR

  10. Sledgehammer

    Sledgehammer New Member

    Okies.... Thanx
     
  11. amit82cse

    amit82cse Silent observeR

    #Slip..your request fullfilled. please visit my thread in the signature...
     
  12. aeg0

    aeg0 Guitarıng Alchemist

    great work, but there's stilll a few minor errors.
    sorry cant rep u right now.
     
  13. twistedthoughts

    twistedthoughts New Member

    Great tabs mate;
    btw can we have the chords for this song pls
     
  14. jazzbox

    jazzbox His X Ln C 1000CC

    chords for the song please
     
  15. scorpion00007

    scorpion00007 New Member

    do u have a recorded version of the song kabhi kabhi and also is the tuning different?
     

Share This Page