Tabs: RiFF & GuiTaR SoLo of "CALIFORNICATION" - ReD HoT CHiLLie PePPeRS

Discussion in 'English Guitar Tabs - Submit or Request' started by paranoid13rohan, Aug 3, 2006.

  1. paranoid13rohan

    paranoid13rohan .: iNDiaN iDioT 3.0 :.

    *****************************
    Song: CALIFORNICATION
    Band: ReD HoT CHiLLie PePPeRS
    Album: CaLiFoRNiCaTioN
    *****************************


    b - bend up
    s - slide
    b^ - bend down


    RiFF:

    e---------|---------
    b-------1-|---------
    g-----2---|-------2-
    D---2-----|-----3---
    A-0-------|---3-----
    E---------|-1-------

    This is a simple RPGO on Am and F.


    GuiTaR SoLo:

    e----9------|----9------|------------------------
    b-10---7b-7-|-10---7b---|-7-7-------------7b-----
    g-----------|-----------|----9-66-----6-9----96--
    D-----------|-----------|-----------9------------
    A-----------|-----------|------------------------
    E-----------|-----------|------------------------

    e----9-12-14-|----9-12-14s16-14--
    b-10---------|-10----------------
    g------------|-------------------
    D------------|-------------------
    A------------|-------------------
    E------------|-------------------

    e-17-16-14-12-14-12----12-------------------12-----
    b-------------------14----14-14b^-14b^-14b^----14--
    g--------------------------------------------------
    D--------------------------------------------------
    A--------------------------------------------------
    E--------------------------------------------------

    e-16-14-12----12----------12--------
    b----------14----14-12-------15-14--
    g----------------------14-----------
    D-----------------------------------
    A-----------------------------------
    E-----------------------------------

    Pick up the RiFF just immediately the GuiTaR SoLo ends.



    Cheers :beer:
    Rohan.
     
  2. saustin316

    saustin316 New Member

    I play the riff a bit differently. I tried urs but for me it didn't work, I'm not saying yours is wrong but just try out mine. Here it is:

    e--------------------------------
    b-------------------------------
    g--------4/5---------------------
    d-----2-------0--2------0---2---
    a---0-----------------3---------
    E-------------------1------------

    Then again in the "If you want these kind'a dreams... Californication",
    I play:
    e-x------------------------------------
    b------------------------------1------
    g------5--------4---------------------
    d-----5-5------5-5-----------2---0-2-
    a---3---------5------------3----------
    E-------------------------1-----------

    Then go back to the riff

    Happy strumming!
     
    paranoid13rohan likes this.
  3. Morbid_Angel

    Morbid_Angel Sid the sloth

    nice work guyz.
     
  4. paranoid13rohan

    paranoid13rohan .: iNDiaN iDioT 3.0 :.

    @saustin316 ... the intro riff is a RPGO on Am and F ... the extra sound that you've added actually comes from the bass ... but nice work ... very much justified ... REPs coming !!! :rock:
     
  5. saustin316

    saustin316 New Member

    Paranoid and arnold,Thanks guys.
     

Share This Page