TABS : Reflections of Passion - Yanni

Discussion in 'Misc Musical Instruments' started by mudgalbharat, Nov 13, 2004.

  1. mudgalbharat

    mudgalbharat Silence Must be Heard

    As taken from http://www.stockmode.com/forum/forum_topics.asp?FID=28

    -----------------------------2--------------------0-2-5---
    ----------------------------------------------------------
    --------------2-----------------------------------------2-
    ----------------------------------------------------------
    ----------------------------------------------------------
    ----------------------------------------------------------



    --2-------------------------2---3--------2----0-----------------0-
    --------------------------3-----0-------------------------2-3-----
    ------------------------2----------------2----0---------2-----2---
    ------------------------------------------------------------------
    ------------------------------------------------------------------
    ------------------------------------------------------------------



    --------------0-----0-----------0-----2-------3----5-----------------7-
    ------------2---3-----------------2-----------0---------3--------------
    ------------------0-----------2-----2--------------6-----------------7-
    --------------------------------------------------------4--------------
    -----------------------------------------------------------------------
    -----------------------------------------------------------------------



    --------------10----9----7----9-------12------10--9------------10-
    ------------------------------------------------------------------
    --------------11----9----7----9-------12------11--9---------------
    ------------------------------------------------------------------
    ------------------------------------------------------------------
    ------------------------------------------------------------------



    ----9------------------0--------------------------------------------
    ------10--10--8--8--7----------------0---0------------------0--3--2-
    ----------------------------7----6-----6--------------0--2----------
    --------------------------------------------------------------------
    --------------------------------------------------------------------
    --------------------------------------------------------------------



    --------------------0---------------------2--0--5-
    --------------0--2-----3------------0--3----------
    -----------2--------------------------------------
    --------------------------------------------------
    --------------------------------------------------
    --------------------------------------------------



    -----------0--5----12----17----------------------------------------------
    -------------------------------------------------------------------------
    -----6--7----------------------------------------------------------------
    -------------------------------16-------------16----------16----------14-
    --------------------------------------17----------17----------17---------
    ------------------------------------------17----------17----------17-----



    --------------------------------------------------------------------------
    ------------------------------------------------------------------------7-
    ------------11----------12----------12-------------11----------9--7-------
    ----12----------12----------12-------------12----------12------------7----
    --------12----------12----------12-------------12----------12-------------
    --------------------------------------------------------------------------



    --------0--------5--7-----------7--------7--------5-
    -----------7--8-----------8--------8--------8-------
    -----7-----------------------7--------7--------7----
    ----------------------------------------------------
    ----------------------------------------------------
    ----------------------------------------------------



    ----3-----7--3-----10--------9-----------7--------5--3-----7-
    -------3--------3------8-----------8--------8-----------3----
    --------------------------7-----------7--------7-------------
    -------------------------------------------------------------
    -------------------------------------------------------------
    -------------------------------------------------------------



    ----3-----5--3-----7--3-----9-----5-----9--5-----9--5-----12-
    -------3--------3--------3-----------5--------5--------5-----
    -------------------------------------------------------------
    -------------------------------------------------------------
    -------------------------------------------------------------
    -------------------------------------------------------------



    -----------10---------9---------7-----------7--------7--------10-
    ----10---------10--------10-----------8--------8--------8--------
    --------9----------9---------9-----------9--------9--------9-----
    -----------------------------------------------------------------
    -----------------------------------------------------------------
    -----------------------------------------------------------------



    ----------9--------7--------9------------9---------9---------12-
    ----8--------8--------8-----------10--------10--------10--------
    -------9--------9--------9------------9---------9---------9-----
    ----------------------------------------------------------------
    ----------------------------------------------------------------
    ----------------------------------------------------------------



    -----------10---------7--5-----9-----5-----9--5-----9--5-----17-
    ----10---------10-----------5-----------5--------5--------5-----
    --------9----------9--------------------------------------------
    ----------------------------------------------------------------
    ----------------------------------------------------------------
    ----------------------------------------------------------------



    --------------------------------------------0------------------
    -----17--15--14--12------12-----------------0------------------
    ---------------------14----------------------------------------
    -----------------------------------------12-----------------12-
    -----------------------------------------12--------------------
    ---------------------------------------------------------------



    -----------------0----------------------------------------------------
    -----------------0----------------0-2---------------------------------
    ----------------------------------------------------2-----------------
    --------------12---------12-----------------------------------------2-
    --------------12------------------------------------------------------
    ----------------------------------------------------------------------



    ----------------5------0-----------------------------------
    --------------------------3--2--0-----0----2-0---0---------
    -------------2---------------------2-----------2-----------
    -----------------------------------------------------------
    -----------------------------------------------------------
    -----------------------------------------------------------



    ----------------0-------------------------------------------------
    --------------3-0---------------------3-------0-2-----------------
    --------------2-------------------------------------------------2-
    ------------------------------------------------------------------
    ------------------------------------------------------------------
    ------------------------------------------------------------------



    ------------------------------0-12-------10-------9-7-----------------0-
    ----------------------------------------------------------------------0-
    --------------------------------12-------11-------9-7---------------7---
    --------------2-----------------------------------------------------7---
    ------------------------------------------------------------------------
    ------------------------------------------------------------------------



    ------------------------------0---------------------------------------0-
    ----------------------------3-0-------3------0--2------------0--2-------
    ----------------------------2-----------------------------2--------2----
    -------------------------------------------------------2----------------
    ------------------------------------------------------------------------
    ------------------------------------------------------------------------
     
  2. lord_neo

    lord_neo Guest

    Mudgal, please remember to mention which instrument the tabs are for.
     
  3. mudgalbharat

    mudgalbharat Silence Must be Heard

    ok..it is originally played on the piano...but i translated it for the guitar.
     
  4. hey mudgal...can u post an mp3 of this piece..to get a fair idea of its timin..
    i think im gonna learn this one..
    thanks..
     
  5. mudgalbharat

    mudgalbharat Silence Must be Heard

    i have the midi file...can i upload it here?
     
  6. mudgalbharat

    mudgalbharat Silence Must be Heard

    MIDI : Until the last moment

    Ok..here is the file u wanted
     

    Attached Files:

  7. mudgalbharat

    mudgalbharat Silence Must be Heard

    MIDI : Reflections of Passion

    Please ignore the previous msg...here is the file u wanted...

    However the previous one is good too...

    regards

    Bharat Mudgal
     

    Attached Files:

  8. thanks...i ll learn it and post me playin it sometime soon..
     

Share This Page