Tabs - Part IX

Discussion in 'Hindi Guitar Tabs - Submit or Request' started by passione4guitar, Jul 4, 2011.

  1. passione4guitar

    passione4guitar New Member

    Hi everyone,
    Here are couple of songs with tabs. All these are from this very website and I have just compiled them together over here. I have not tabbed any of these and I don't intend to take credit of the actual people behind this. Just want to make it more accessible....

    Dil Ne Yeh Kaha Hai Dil Se

    E --------------------------------------
    B -----6---------------------------------
    G -5-7---7-5-4-7-5-----------------------------
    D --------------------------------------
    A --------------------------------------
    E --------------------------------------
    Dil ne yeh kaha hai dil se




    E --------------------------------------
    B -------6-------------------------------
    G -5-5-7--7-5-4-7-5-----------------------------
    D --------------------------------------
    A --------------------------------------
    E --------------------------------------
    Mohabbat ho gayi hai tum se



    E --------------------------------------
    B -------8-6-4-6\8-6---------------------------
    G -5-7-8-----------------------------------
    D --------------------------------------
    A --------------------------------------
    E --------------------------------------
    meri jaan na mere dilber



    E --------------------------------------
    B ------6-4--3-4\6-4---------------------------
    G -3-5-7-----------------------------------
    D --------------------------------------
    A --------------------------------------
    E --------------------------------------
    mera aietebar ker lo



    E --------------------------------------
    B -------8-6-4-6\8-6---------------------------
    G -5-7-8-----------------------------------
    D --------------------------------------
    A --------------------------------------
    E --------------------------------------
    jitna bekarar hu mein



    E --------------------------------------
    B ------6-4--3-4\6-4---------------------------
    G -3-5-7-----------------------------------
    D --------------------------------------
    A --------------------------------------
    E --------------------------------------
    khud ko bekarar ke lu




    E --------------------------------------
    B --------------------------------------
    G --3-5-5-8-7-5-8-7------------------------------
    D --------------------------------------
    A --------------------------------------
    E --------------------------------------
    meri dharkanoun ko sumjho



    E --------------------------------------
    B --------------------------------------
    G -7-5-4-4--4-7-5-------------------
    D --------------------------------------
    A --------------------------------------
    E --------------------------------------
    tum bhi muj se pyar ker lo


    ___________________________________________________________________________________________

    Do pal Ruka

    ......Do....pal....ruka....khwaabon....ka...carvan
    E |--6-----4-------------------------------------------------------------------------------
    B |---------------7-6----6-4-----------6-----4-----6-------------------------------------
    G |-----------------------------------------------6----------------------------------------


    ......Aur....phir....chal....diye.........tum..... kahan....hum....kahan
    B |--4-6----7------6------4-2--------2--------4-6---------------------------------------
    G |------------------------------4------------------------6-------4-3---------------------


    ......Do....pal....ki....thi....ye....dilon....ki. ...daastaan
    E |--6-----4--------------------------------------------4----------------------------------
    B |--------------7----6-----6-----6-4-----6----4----------6------------------------------
    G |--------------------------------------------------6-------------------------------------


    ......Aur....phir....chal....diye.........tum..... kahan....hum....kahan
    B |--4-6----7------6------4-2--------2--------4-6---------------------------------------
    G |------------------------------4------------------------6-------4-3---------------------


    ......Aur....phir....chal....diye.........tum..... kahan....hum....kahan
    B |--4-6----7------6------4-2--------2--------4-6--------------------4------------------
    G |------------------------------4------------------------6-------4-3---------------------


    STANZA :-

    ......Tum....the....ki....thi....koyi....ujali.... ..kiran
    E |--6-------6-----4----6----6-4-----6-8-9----8-9----------------------------------------


    ......Tum....the....ya.....koyi....kali....muskaay i
    E |--9-8-----9-----11----9-7----6------9-7-6-6-6----------------------------------------
    B |----------------------------------7------------------------------------------------------


    ......Tum....the....ya....sapno....ka....tha...... saawan
    E |--6-------6-----4-----6-6------4----6-8------9-8-9------------------------------------


    ......Tum.....the....ke....khushiyon...ki....ghata ....chaayi....thi
    E |--9-8-----9-----11----9-7-6-------------9-7------6-6-------6-------------------------
    B |-------------------------------------7---------------------------------------------------


    ......Tum....the....ki....tha......koyi....phool.. ..khila
    E |--6-------6-----7----6-4-------------4-4------4-4------------------------------------
    B |------------------------------7-6-------------------------------------------------------


    ......Tum....the.....ya....mila......tha....mujhe. ..naya....jahaan
    B |--6-4----4-6----7----6-4-2----2-----4-6----------------6-4-6------4-----2---------
    G |--------------------------------------------------6-8--------------6------4-----3-----


    ......Do....pal....ruka....khwaabon....ka...carvan
    E |--6-----4-------------------------------------------------------------------------------
    B |---------------7-6----6-4-----------6-----4-----6-------------------------------------
    G |-----------------------------------------------6----------------------------------------


    ......Aur....phir....chal....diye.........tum..... kahan....hum....kahan
    B |--4-6----7------6------4-2--------2--------4-6---------------------------------------
    G |------------------------------4------------------------6-------4-3---------------------


    ......Do....pal....ki....thi....ye....dilon....ki. ...daastaan
    E |--6-----4--------------------------------------------4----------------------------------
    B |--------------7----6-----6-----6-4-----6----4----------6------------------------------
    G |--------------------------------------------------6-------------------------------------


    ......Aur....phir....chal....diye.........tum..... kahan....hum....kahan
    B |--4-6----7------6------4-2--------2--------4-6---------------------------------------
    G |------------------------------4------------------------6-------4-3---------------------


    ......Aur....phir....chal....diye.........tum..... kahan....hum....kahan
    B |--4-6----7------6------4-2--------2--------4-6--------------------4------------------
    G |------------------------------4------------------------6-------4-3---------------------
     

Share This Page