tabs of hindi songs

Discussion in 'Hindi Guitar Tabs - Submit or Request' started by sourav_totai, Apr 4, 2006.

  1. sourav_totai

    sourav_totai New Member

    kuch na kaho..
    intro.
    --------------|----------------------|---1-----1-------------|
    --------------|--6--4-6-4---4--3-----|-------4---4--4--3----|
    --------------|----------------------|-----------------------|
    --------------|----------------------|-----------------------|
    --------------|----------------------|-----------------------|
    --------------|----------------------|-----------------------|

    ---1----1--------------|--1---2----3-----|--1----1---------------|
    ------4---4----4--3----|-----------------|-----4---4----4--3-----|
    -----------------------|-----------------|-----------------------|
    -----------------------|-----------------|-----------------------|
    -----------------------|-----------------|-----------------------|
    -----------------------|-----------------|-----------------------|

    --------------|---1----1-------------1-|------1-------------1-|
    --------------|------4---4---4--3------|----4---4--4---3------|
    --------------|------------------------|----------------------|
    --------------|------------------------|----------------------|
    --------------|------------------------|----------------------|
    --------------|------------------------|----------------------|

    ------1-----------1-|-----2----3------|--1-----1-------------|
    ----4---4--4-3------|-----------------|-----4----4--4--3-----|
    --------------------|-----------------|----------------------|
    --------------------|-----------------|----------------------|
    --------------------|-----------------|----------------------|
    --------------------|-----------------|----------------------|
    tune..
    -----|-------6---------|---------------|
    -----|--8--------------|---------------|
    -----|--------------8--|--7------------|
    -----|-----------------|---------------|
    -----|-----------------|---------------|
    -----|-----------------|---------------|

    --------------|----------3----|--3----6---------|---------------|
    --------------|---------------|--------------3--|--4------------|
    --------------|---------------|-----------------|---------------|
    --------------|---------------|-----------------|---------------|
    --------------|---------------|-----------------|---------------|
    --------------|---------------|-----------------|---------------|

    --------------|--------------|--3----6---------|---------------|
    --------------|--------------|--------------4--|--3------------|
    --------------|--------------|-----------------|---------------|
    --------------|--------------|-----------------|---------------|
    --------------|--------------|-----------------|---------------|
    --------------|--------------|-----------------|---------------|

    --------------|----------3---|--3----6---------|---------------|
    --------------|--------------|--------------3--|--4------------|
    --------------|--------------|-----------------|---------------|
    --------------|--------------|-----------------|---------------|
    --------------|--------------|-----------------|---------------|
    --------------|--------------|-----------------|---------------|

    --------------|--------------|--------------3--6-|--4----4---------|
    --------------|--------------|--4------6---------|-----------------|
    --------------|--------------|-------------------|-----------------|
    --------------|--------------|-------------------|-----------------|
    --------------|--------------|-------------------|-----------------|
    --------------|--------------|-------------------|-----------------|

    --------------|--------------|---4------6----4--|--3-1----3--------|
    --------------|--------------|------------------|------------------|
    --------------|--------------|------------------|------------------|
    --------------|--------------|------------------|------------------|
    --------------|--------------|------------------|------------------|
    --------------|--------------|------------------|------------------|

    --------------|--------------|--6----6-------8--|--6--5--5--------|
    --------------|--------------|------------------|-----------------|
    --------------|--------------|------------------|-----------------|
    --------------|--------------|------------------|-----------------|
    --------------|--------------|------------------|-----------------|
    --------------|--------------|------------------|-----------------|

    ------------3--|--3----1--------|---8---8--10----8--|
    ---------------|--1-------------|-------------------|
    ---------------|----------------|-------------------|
    ---------------|----------------|-------------------|
    ---------------|----------------|-------------------|
    ---------------|----------------|-------------------|

    --6--5--8--6-6-----|--------------|--------------|
    -------------------|--------------|--------------|
    -------------------|--------------|--------------|
    -------------------|--------------|--------------|
    -------------------|--------------|--------------|
    -------------------|--------------|--------------|

    --6----8-10---8-6---|--6-10-8--8---------|---------------|
    --------------------|--------------------|---------------|
    --------------------|--------------------|---------------|
    --------------------|--------------------|---------------|
    --------------------|--------------------|---------------|
    --------------------|--------------------|---------------|

    ----10-11-10-------------|---10---10--8---10--|---10------11--------|
    -------------------------|--------------------|---------------------|
    -------------------------|--------------------|---------------------|
    -------------------------|--------------------|---------------------|
    -------------------------|--------------------|---------------------|
    -------------------------|--------------------|---------------------|

    --------------|----------------|---11------11----13----|
    --------------|----------------|-----------------------|
    --------------|----------------|-----------------------|
    --------------|----------------|-----------------------|
    --------------|----------------|-----------------------|
    --------------|----------------|-----------------------|

    ---11----10---------|-------------8--|---8-----------------|
    ---10---------------|----------------|---11----11----------|
    --------------------|----------------|---------------------|
    --------------------|----------------|---------------------|
    --------------------|----------------|---------------------|
    --------------------|----------------|---------------------|

    ---8--10--8--10-----8--|---6--5--5--8--6------|-------------------|
    -----------------------|----------------------|------------8------|
    -----------------------|----------------------|-------8-----------|
    -----------------------|----------------------|-------------------|
    -----------------------|----------------------|-------------------|
    ----------------------|----------------------|-------------------|

    ------------------|----------6---------|---------------------|
    ------------------|---8---8-------8----|-------6-------------|
    ---8--------------|--------------------|---8-----8-7---------|
    ------------------|--------------------|---------------------|
    ------------------|--------------------|---------------------|
    ------------------|--------------------|---------------------|

    --------------|----------------|---1----1--3----1-----|
    --------------|----------------|-------------------4--|
    --------------|----------------|----------------------|
    --------------|----------------|----------------------|
    --------------|----------------|----------------------|
    --------------|----------------|----------------------|

    ----------1-------|
    ----3--3----4-----|
    ------------------|
    ------------------|
    ------------------|
    ------------------|
    reply people....add reps..
     
  2. sourav_totai

    sourav_totai New Member

    rog maine dil se kaha

    --12--12--10--8---8----10--|--12--20-------20--22--20-22--|
    ----------------------------|--------------------------------|
    ----------------------------|--------------------------------|
    ----------------------------|--------------------------------|
    ----------------------------|--------------------------------|
    ----------------------------|--------------------------------|



    --19--17--15----19----17-19-|--17----------17----17--|
    ------------------------------|-------------------------|
    ------------------------------|-------------------------|
    ------------------------------|-------------------------|
    ------------------------------|-------------------------|
    ------------------------------|-------------------------|



    --16---------------------|--15----------15----17--|
    ---------------17----15--|------------------------|
    -------------------------|------------------------|
    -------------------------|------------------------|
    -------------------------|------------------------|
    -------------------------|------------------------|



    --------------15----15--|--12-----------------||
    --18--------------------|---------------------||
    ------------------------|---------------------||
    ------------------------|---------------------||
    ------------------------|---------------------||
    ------------------------|---------------------||
     
  3. sourav_totai

    sourav_totai New Member

    bombai naariya...taxi no 9211

    --24-----22--22--20-----19--17-19-17-|
    -------------------------------------|
    -------------------------------------|
    -------------------------------------|
    -------------------------------------|
    -------------------------------------|



    -15--15--15--19-17--17--------|--17----24----22--------24---22--|
    -------------------------------|------------------22-------------|
    -------------------------------|---------------------------------|
    -------------------------------|---------------------------------|
    -------------------------------|---------------------------------|
    -------------------------------|---------------------------------|



    -------25----24--22--22--20-22-----|----------24------24-25--24--20--|
    --22-------------------------------|--22--22-------------------------|
    -----------------------------------|---------------------------------|
    -----------------------------------|---------------------------------|
    -----------------------------------|---------------------------------|
    -----------------------------------|---------------------------------|



    --22-24--24--25-24-----24-25--24--20--|
    ----------------22--------------------|
    --------------------------------------|
    --------------------------------------|
    --------------------------------------|
    --------------------------------------|



    --22-24--22---20-22-20-19--19-20-19-----17-|
    -------------------------------------20----|
    -------------------------------------------|
    -------------------------------------------|
    -------------------------------------------|
    -------------------------------------------|



    ---19--19--20-19-17----------|--17--17--24------24-25--24--20-|
    -----------------------------|--------------------------------|
    -----------------------------|--------------------------------|
    -----------------------------|--------------------------------|
    -----------------------------|--------------------------------|
    -----------------------------|--------------------------------|



    --22-24--24--25-24-22----24-25--24--20--|
    ----------------------------------------|
    ----------------------------------------|
    ----------------------------------------|
    ----------------------------------------|
    ----------------------------------------|



    --22-24--22---20-22-20-19--19-20--19-----|
    --------------------------------------20-|
    -----------------------------------------|
    -----------------------------------------|
    -----------------------------------------|
    -----------------------------------------|



    --17-19--19-20-19-17----------|
    ------------------------------|
    ------------------------------|
    ------------------------------|
    ------------------------------|
    ------------------------------|


    welcome people....
     

Share This Page