Tabs: O O Jaane Jana : Salman Khan

Discussion in 'Hindi Guitar Tabs - Submit or Request' started by vishwa_81us, Sep 30, 2005.

  1. vishwa_81us

    vishwa_81us Banned

    Dear All,

    After a looong looong time.. i m back in this forum from where i started.. thanx to Bandbaaja.. who inspired me to come back to business..

    this is the first time i m posting the tabs.. so plzz let me know my mistake.. this song i think is the best hindi song to start tabs... here it goes.. i searched in forum this song has not been tabbed...


    Intro

    E-|--------0-------------------------------|
    B-|----------3-1------3-3—0---0--------|
    G-|-2—22--------------------2---2----0-|

    E-|----------------------0-0------------------------------|
    B-|---0-0-0—0------------------0-1-1-1---------0------|
    G-|-0---------------------------2---------------------2-2--|


    repeat



    E-|---------------------------------------------|
    B-|-1--1--0---0—1------3-3—0—0---------|
    G-|----------2--------------------2---2------0-|
    O o jane jana dhunde tujhe diwana

    E-|----------------------0-0------------------------------|
    B-|---0-0-0—0------------------0-1-1-1---------0------|
    G-|-0---------------------------2---------------------2-2--|
    Sapno mein rozz aae Aa zindagi me aana sanam

    Antra


    E-|----0---------------------------------------------|
    B-|-------1-------------3---0--------------0---0----|
    G-|-2----------------2-------------2-0-2--------2--|
    Mera khwab mereee khayaloki rani

    E-|--------0--------------------------|
    B-|------1----3-3-------0—3---1-1-|
    G-|2-2------------0-0---------------|
    Kisi din banegi hamari kahani

    E-|--0-0--2---------2-2------------------0---------0-0------|
    B-|-------------------------3---------3-3----------------1---|
    G-|------------------------------------------------------------|


    E-|----------------------------------0-0----0------------|
    B-|--0----0-----0----0-----------------------3-1-0------|
    G-|----2-----------2--------1--3-------------------2-----|
    Pyar me ek din meri jaan tujhe pana





    vishwa :cool:
     
  2. born2tab

    born2tab rhythm guitarist

    Hey vishwa......
    nice tabs dude..y did u leave this forum???? guys like u, r a must here.Who else do u xpect to keep the newbies updated....
     
  3. vishwa_81us

    vishwa_81us Banned

    thanks born2tab..

    i m back to the business again..
     
  4. sambitsatpathy

    sambitsatpathy New Member

    hey vishwa,
    yeh tere sare reputations red kaise hain re....
     
  5. vini

    vini Repeat Offender

    neat and clean :) btw..vishwa or u a newbie when it comes 2 guitaring or ur an expert?? just curious
     
  6. anshphenomenon

    anshphenomenon Rape me :boff:

    vishwa posting tabs=sun rise from south.... :p:
     
  7. vini

    vini Repeat Offender

    no no...sun has risen from tabs forum.usually it rises from Chit Chat Forum :grin:

    anyways Vishwa..lookin forward4 more..post some chord yaar..m bored of vocal melody tabs..these r no gud..just time pass..but nice effort nonetheless
     
  8. vishwa_81us

    vishwa_81us Banned

    ^^^ ya vini.. thanx for appreciation.. i will also post some chords soon... :)
     
  9. Divyesh A.Patel

    Divyesh A.Patel New Member

    good vishwa u made it in easy way
     

Share This Page