Tabs: Kahin To Hogi Woh (Jaane Tu Ya Jaane Na)

Discussion in 'Hindi Guitar Tabs - Submit or Request' started by mmsshh777, Jul 19, 2008.

  1. mmsshh777

    mmsshh777 New Member

    SUB:-Tabs: Kahin To Hogi Woh (Jaane Tu Ya Jaane Na)


    ....Kahin To....Kahin To...Hogi Woh..Duniya..Jahaan Tu Mere Saath Hai

    E|---------------------------------------------------------------------|
    B|-----------------------------------6-6-4-4---------------------------|
    G|--5-5h7-7~----5-5h7-7~---5-5h7-7~-----------7-7-5--5-----------------|
    D|-----------------------------------------------------8--8-8-5~-------|
    A|---------------------------------------------------------------------|
    E|---------------------------------------------------------------------|

    .Jahaan Main....Jahaan Tu..Aur Jahaan Bas Teri Meri Jazbaat Hai

    E|---------------------------------------------------------------------|
    B|-----------------------------6------6-6-4-4--------------------------|
    G|--5-5h7-7~----5-5h7-7~---5-5---5h7~---------7-7-5--5-----------------|
    D|-----------------------------------------------------8--8-8-5~-------|
    A|---------------------------------------------------------------------|
    E|---------------------------------------------------------------------|

    ...Hogi Jahaan Subah.......Teri.........Palkon Ki Kirnon...Mein

    E|---------------------------------------------------------------------|
    B|---------------------------------------------------------------------|
    G|------2-2h3~--5--5s7s5---3p2--------------2-2h3~--2---2-2p0----------|
    D|--3-5------------------------5--------3-5-----------3--------3p0-----|
    A|---------------------------------------------------------------------|
    E|---------------------------------------------------------------------|

    ....Lori Jahaan.....Chaand Ki.....Sune Teri Baahon Mein

    E|---------------------------------------------------------------------|
    B|-------------------------------------6-6----6-6h8~-------------------|
    G|------2-2h3~--3p2-2h3-5-7p5h7~---5-7------7--------------------------|
    D|--3-5----------------------------------------------------------------|
    A|---------------------------------------------------------------------|
    E|---------------------------------------------------------------------|

    Jaane Na Kahaan..Woh Duniya Hai Jaane Na Woh Hai Bhi Ya Nahin

    E|---------------------------------------------------------------------|
    B|----------------------------------------3--3h4-3---------------------|
    G|------3-5-5s7~--------------------3--5-----------5-3-----------------|
    D|--0-3----------3--3-3-5--5~----5---------------------5~--------------|
    A|---------------------------------------------------------------------|
    E|---------------------------------------------------------------------|

    Jahaan Meri Zindagi Mujh Se...Itni..Khafa Nahin

    E|---------------------------------------------------------------------|
    B|--------------3------------------------------------------------------|
    G|--3-2--3-2--3-----------------------3-3p2--3h5-3~--------------------|
    D|----------------3--5--5--5---5--3-3----------------------------------|
    A|---------------------------------------------------------------------|
    E|---------------------------------------------------------------------|

    You can listen to me playing it here (if it's of any help!!):

    http://www.soundclick.com/bands/default.cfm?bandID=495257

    Cheers!
     
  2. sachin12

    sachin12 New Member

    great work man!!
     
  3. avspavan

    avspavan New Member

    awesome dude....

    great work ...keep it up!!! is this the arpeggio of the chords of this song too ???
     
  4. raad

    raad New Member

    great........................
     
  5. tabs_beggar

    tabs_beggar New Member

    lovly :) mazay ka :) gud work :) plz post more tabs recording plzzzzzzzz
     
  6. s_shekhar

    s_shekhar New Member

    hey im new to these tabs.......can u also post the method to read them and understand them.cheers!!
     
  7. tabs_beggar

    tabs_beggar New Member

    hello mmsshh777 how r u? hey plz could u help me ? i need tabs recording of the song Pehla nasha pehla khumar music plus lyrics the tabs are already posted by somone here so plz i desperately need the recording so that i can able to play it rite plzzzzzz waiting for ur reply
     
  8. ojas25

    ojas25 New Member

    wow great work, buddy !!!
    can you post tabs for female part??
    thnx
     
  9. prasu10

    prasu10 New Member

    hey i am beginner can you just tell me how to play 3p2,5s7 on any string .
     
  10. mmsshh777

    mmsshh777 New Member

    you can just google "how to read tabs"... or you can just check this site:

    http://guitar.about.com/library/blhowtoreadtab.htm

    cheers!
     
  11. mmsshh777

    mmsshh777 New Member

    ok, just give me some time..I will do it for you!!
     
  12. mmsshh777

    mmsshh777 New Member

    ok, will post it soon..
     
  13. mmsshh777

    mmsshh777 New Member

    hi, 'p' stands for 'pull off', it's just the opposite of 'h' or 'hammer on'..all you do is put your index finger on the 2nd fret and your middle finger on the 3rd fret and then pluck the string and then quickly lift your middle finger... as for 5s7, that's called sliding..play the 5th note and then slide your finger to the 7th fret..

    cheers!
     
  14. bondhu number 1

    bondhu number 1 New Member

    great! well done!
     
  15. ace_guitarist

    ace_guitarist New Member

    amazing work dude...!!!
     
  16. sydneyc

    sydneyc New Member

    thanks for the tabs.
     
  17. bilalali

    bilalali New Member

    Wow!

    effin awesome dude !!! Thanks Alot.....
     
  18. ojas25

    ojas25 New Member

    dude, waiting for female part.....
     
  19. mmsshh777

    mmsshh777 New Member

    OK, Here's the Female Part together with the Antra in fact the whole song..I've also made some changes to my original post..for some reason I can't edit it there... ANyway, here goes:


    ....Kahin To....Kahin To...Hogi Woh..Duniya..Jahaan Tu Mere Saath Hai

    E|---------------------------------------------------------------------|
    B|-----------------------------------6-6-4-4---------------------------|
    G|--5-5h7-7~----5-5h7-7~---5-5h7-7~-----------7-7-5--5-----------------|
    D|-----------------------------------------------------8--8-8-5~-------|
    A|---------------------------------------------------------------------|
    E|---------------------------------------------------------------------|

    .Jahaan Main....Jahaan Tu..Aur Jahaan Bas Teri Meri Jazbaat Hai

    E|---------------------------------------------------------------------|
    B|-----------------------------6------6-6-4-4--------------------------|
    G|--5-5h7-7~----5-5h7-7~---5-5---5h7~---------7-7-5--5-----------------|
    D|-----------------------------------------------------8--8-8-5~-------|
    A|---------------------------------------------------------------------|
    E|---------------------------------------------------------------------|

    ...Hogi Jahaan Subah.......Teri.........Palkon Ki Kirnon...Mein

    E|---------------------------------------------------------------------|
    B|------------------------------------------------------------3--------|
    G|------2-2h3~--5--5s7s5---3p2--------------2-2h3~--2---2-2p0----------|
    D|--3-5------------------------5--------3-5-----------3----------------|
    A|---------------------------------------------------------------------|
    E|---------------------------------------------------------------------|

    ....Lori Jahaan.....Chaand Ki.....Sune Teri Baahon Mein

    E|---------------------------------------------------------------------|
    B|-------------------------------------6-6----6-6h8~-------------------|
    G|------2-2h3~--3p2-2h3-5-7p5h7~---5-7------7--------------------------|
    D|--3-5----------------------------------------------------------------|
    A|---------------------------------------------------------------------|
    E|---------------------------------------------------------------------|

    Jaane Na Kahaan..Woh Duniya Hai Jaane Na Woh Hai Bhi Ya Nahin

    E|---------------------------------------------------------------------|
    B|----------------------------------------3--3h4-3---------------------|
    G|------3-5-5s7~--------------------3--5-----------5-3-----------------|
    D|----3----------3--3-3-3h5--5~--5---------------------5~--------------|
    A|--5------------------------------------------------------------------|
    E|---------------------------------------------------------------------|

    Jahaan Meri Zindagi Mujh Se...Itni..Khafa Nahin

    E|---------------------------------------------------------------------|
    B|--------------3------------------------------------------------------|
    G|--3-2--3-2--3-----------------------3-3p2--3h5-3~--------------------|
    D|----------------3--5--5--5---5--3-3----------------------------------|
    A|---------------------------------------------------------------------|
    E|---------------------------------------------------------------------|

    Female Part

    Saansein kho gayi hai kiski aahon mein...Main kho gayi hoon jane kiski baahon mein

    E|-----------------------------------------------------------------------------|
    B|-----------------------------------------------------------------------------|
    G|-5-3-3------------------------------------5--5-3-3---------------------------|
    D|-------5-5-3-3---3-3h5-5~--------------------------5-5-3-3---3-3h5-5~--------|
    A|---------------6-------------------------------------------6-----------------|
    E|-----------------------------------------------------------------------------|

    Manzilon se rahe dhoondti chali.............Aur kho gayi hai manzil kahin rahon mein

    E|--------------------------------------------------------------------------------|
    B|--------------------------------------------------------------------------------|
    G|5-5-3-3---------------3----------------------5--5-3-3-----------------3---------|
    D|--------5-3h5-3-3---3---5~----------------------------5-5-3-3---3-3h5--5--------|
    A|------------------6-------------------------------------------6-----------------|
    E|--------------------------------------------------------------------------------|

    Back To Male

    ....kahin to... kahin to.. hai nasha… teri meri har mulaqat mein…

    E|---------------------------------------------------------------------|
    B|-----------------------------6------6-6-4-4------------------8-------|
    G|--5-5h7-7~----5-5h7-7~---5-5---5h7~---------7-7-5-5------5-5---------|
    D|----------------------------------------------------8--8-------------|
    A|---------------------------------------------------------------------|
    E|---------------------------------------------------------------------|

    ...hoton se.....hoton ko.. chumti… oh rehte hai hum har baat pe..

    E|--------------------------------------------------------------------|
    B|--------------------6-------------6-6-4-4-------------------8-------|
    G|--5-5h7-7~----5-5h7---7~---5-7-7~---------7-7-5--5------5-5---------|
    D|---------------------------------------------------8--8-------------|
    A|--------------------------------------------------------------------|
    E|--------------------------------------------------------------------|

    ..kehti hai, fiza jahan..... teri zameen.......aasman…

    E|-------------------------------------------------------|
    B|---------6---------------------------------------------|
    G|-7p5~------5h7p5----------------2-3h5p3--3-5-5p2-2-----|
    D|-----7-8---------7-5-------3-5---------------------5---|
    A|-------------------------------------------------------|
    E|-------------------------------------------------------|

    ..jaha hai tu, meri haseen......,meri khushi, meri jaaan….

    E|-------------------------------------------------------------------|
    B|------------------------------------6-6----6-6h8~------------------|
    G|------2-3~--3p2-2h3-5-7p5h7~---5-7------7--------------------------|
    D|--3-5--------------------------------------------------------------|
    A|-------------------------------------------------------------------|
    E|-------------------------------------------------------------------|



     
  20. ojas25

    ojas25 New Member

    wow, that was really quick...but nice .... thnx mate!!
    reps added!!!
     

Share This Page