tabs:Hero Flute Theme!!..e.n.J.o.Y

Discussion in 'Hindi Guitar Tabs - Submit or Request' started by vini, Nov 28, 2005.

  1. vini

    vini Repeat Offender

    Although its a neat flute tune and should be left for flute only but i realized that req for this theme's tabs have been posted recently even earlier also..so i thot of giving it a try!..here goes>

    Code:
    e---5-7-5-7-5-----------------------------
    B-------------6----6r-5------------------  
    G-7--------------7-------7---------------
    
    
    e-------4-5-7-7h10-10-8---7-5-4----------------
    B-6-6-5--------------------------6-------
    G------------------------------------
    
    
    e---5-7-5-7-5-----------------------------
    B-------------6----6r-5------------------  
    G-7--------------7-------7--------------- 
    :)
     
    .:SpY_GaMe:. likes this.
  2. vini

    vini Repeat Offender

    no takers?? :)
     
  3. .:SpY_GaMe:.

    .:SpY_GaMe:. New Member

    ^^ band baaja has already posted that theme before

    will try urs tonight
     
  4. vini

    vini Repeat Offender

    thats great,,,i never came around this theme posted before..do drop the link
     
  5. Rajeshwary

    Rajeshwary New Member

    tabs r good except for one place
    here is my correction to your tabs

    Code:
    e---5-7-5-7-5-----------------------------
    B-------------6----6r-5------------------  
    G-7--------------7-------7---------------
    
    
    e-------4-5-7-7h10-10-8---7-5-----------------
    B-6-6-5------------------------------9~~-8-6--
    G------------------------------------
    
    
    e---5-7-5-7-5-----------------------------
    B-------------6----6r-5------------------  
    G-7--------------7-------7--------------- 
     
    .:SpY_GaMe:. likes this.
  6. .:SpY_GaMe:.

    .:SpY_GaMe:. New Member

    http://www.indianguitartabs.com/showthread.php?t=6395

    the link i said baand baaja already posted the tabs before n never said the tabs were the same!!! :p:

    thats y i said i will check ur version later..

    refer to post numb 3 in this thread ;)
     
  7. vini

    vini Repeat Offender

    @ raj
    thanx but the 4th note on E string which i posted instead of that u suggested 9th on Bstring and then and the last one which is 6th is the same..technically only addition is 8 coz 4th note on E string OR 9th note of B string are the same note i.e, G# :grin:

    anyways thanx for ur feedback
     
  8. Rajeshwary

    Rajeshwary New Member

    yup u r rt only addition is the 8 :)
     
  9. vini

    vini Repeat Offender

    100 views till now and no feedback? :annoyed:
     
  10. abhimanjrekar

    abhimanjrekar ----> Zhol-Man<----

    ther goes the cranky face again....hehehe...oyee good work..
     
  11. vini

    vini Repeat Offender

    alright! thanx :)
     

Share This Page