Tabs for tujhi mein(reprise) movie crook

Discussion in 'Hindi Guitar Tabs - Submit or Request' started by Navneet Arya, Sep 4, 2012.

  1. Navneet Arya

    Navneet Arya Member

    Intro
    B-9------
    G---9-8-9 X4


    G-9h8-6-8 X4


    B-9-9-9-9-9-9-9h7------------------------
    G-----------------9--9-9-9h8-6-8--9h8-6-8
    Tujh mein hi mehfuz hai zindagi




    B-9-9-9-9-9-9-9h7------------------------
    G-----------------9--9-9-9h8-6-8--9h8-6-8
    Ab toh jeeun ya marrun main yahin


    B-7-----7-----7------7-9-9h10-10---------------
    G---6-9---6-9---6-9----------------9-8-9-9h11--
    Tu hi barosa hai, tu hi toh umeed hai, aakhri


    B----10-9-7----9-7-10-7-9
    G-6---------9------------
    Na dena mujhe ab faasle




    B----10-9-7----9-7-10-7-9
    G-6---------9------------
    Maine toh kiye hain faisle


    B-9-10-10h12-12--------------9--9h10-9-7
    G---------------9-6-4--4-6-9------------
    Jaana hai kahan, tere siwa woaa




    B----10-9-7----9-7-10-7-9
    G-6---------9------------
    Mujhe teri panahein miley




    B----10-9-7----9-7-10-7-9
    G-6---------9------------
    Rehne ko teri baahein miley


    B-9-10-10h12-12--------------9--9h10-9-7
    G---------------9-6-4--4-6-9------------
    Jaana hai kahan, tere siwa woaa


    B---------12-9------10-9-7--------------------
    G--4-6-9--------6-4---------9-6-6\4-4h6--4-2--
    Tujhi mein dhoondu, kuch der jeenay ka, aasra




    B---------12-10---10-9-7-----------------------
    G--4-6-9--------4---------9-9h11-11-9-9h11-9-8-
    Tujhi se poonchu, khud se hi milne ka, raasta




    B---------12-9------10-9-7--------------------
    G--4-6-9--------6-4---------9-6-6\4-4h6--4-2--
    Tujhi mein dhoondu, kuch der jeenay ka, aasra


    B---------12-10---10-9-7-----------------------
    G--4-6-9--------4---------9-9h11-11-9-9h11-9-8-
    Tujhi se poonchu, khud se hi milne ka, raasta


    B----10-9-7----9-7-10-7-9
    G-6---------9------------
    Mujhe teri panahein miley




    B----10-9-7----9-7-10-7-9
    G-6---------9------------
    Rehne ko teri baahein miley


    B-9-10-10h12-12--------------9--9h10-9-7
    G---------------9-6-4--4-6-9------------
    Jaana hai kahan, tere siwa woaa


    B-9-9-9-9-9-9-9h7-----------------------
    G-----------------9--9-9-9h8-6-8-9h8-6-8
    Mujhpe meharbaan mera, rondh hua




    B-9-9-9-9-9-9-9h7-----------------------
    G-----------------9--9-9-9h8-6-8-9h8-6-8
    Teri wajah se hi yeh sab hua


    B-7-----7-----7------7-9-9h10-10------------------
    G---6-9---6-9---6-9----------------9-8-9-9h11-------
    Main jee rahan hoon yahan pe yeh ehsaas bhi ab hua


    B----10-9-7----9-7-10-7-9
    G-6---------9------------
    Kaandhe pe tere pal yeh dhale




    B----10-9-7----9-7-10-7-9
    G-6---------9------------
    Rukey na kabhi yeh silsile


    B-9-10-10h12-12--------------9--9h10-9-7
    G---------------9-6-4--4-6-9------------
    Jaana hai kahan, tere siwa woaa


    B----10-9-7----9-7-10-7-9
    G-6---------9------------
    Mujhe teri panahein miley




    B----10-9-7----9-7-10-7-9
    G-6---------9------------
    Rehne ko teri baahein miley


    B-9-10-10h12-12--------------9--9h10-9-7
    G---------------9-6-4--4-6-9------------
    Jaana hai kahan, tere siwa woaa


    keep rocking....
     

Share This Page