Tabs for the song Unna Nenachain Paattu Padichen from Aboorva Sagodarargal

Discussion in 'Tamil Guitar Tabs - Submit or Request' started by SATHYA167, Sep 7, 2012.

  1. SATHYA167

    SATHYA167 New Member

    We saw a happy number "Pudu Map****aikku" from Aboorva Sagodarargal. In film, a happy number will soon get followed by a sad number.

    Let us try this sad number. My first posting of a sad song.

    An excellent song - Kamal + IR combo - Very sharp words and well sung by SPB - A hit song.

    Here we go.......................


    ------Unna Nenachae Pattu Padichen Thangame Gnanathangame
    G-----71010--10-10-97---79-9--9-9-76---6-7-7-7--7--7-7---7--7--- G

    ------Enna Ninaichae Naanum Sirichen Thangame Gnanathangame

    G-----71010--10-10-97---79-9--9-9-76---6-7-7-7--910-7-910--7-7-- G

    ------Antha Vanam Azuthathan Intha Boomiye Sirikkum
    B---------------10--1010-10-11---10-------10-10--10-10-118---- B
    G-----7--7----7---------------------7---7--------------------- G

    ------Antha Vanam Polsilaper Sontha Vazkkayum Irukkum
    B-----10------10----10-10-10-11---10--------10-10--1010-118---- B
    G--------7--7-------------------------7---7-------------------- G

    ------Unarnthen Naan ...
    E------------10--8------- E
    B-----810--11-----1110--- B

    ----- Asai Vanthu Ennai Atti Vaitha Pavam
    B-----1010---8----------------10-10--8---------------- B
    G-------------10-97---7-7910----------10-97----7-7---- G

    ------Matravarai Nan En Kutram Sollavendum
    B-----10-10-8----------------------------------- B
    G------------10-97—--975---5---7—97---79--7--7-- G

    ------Kottum Mazhaikalam Uppu Vikka Ponen
    B-----1010-----8------------------10-10--8-------------- B
    G---------------10-97-----7-7910----------10-97--7-7---- G

    ----- Katra***kum Ne..ram Mavu Vikka Ponen
    B-----10-10-8----------------------------------- B
    G------------10-97—--975--5---7—910-—79-7--7--7-- G

    ------Thappukkanakkai Pottuthavithen Thangame Gnanathangame

    E-------10-10-10-10-9----8--88--87---------------8-----8-------- E
    B-----10-------------10-----------8----11-11-11-----11---11-11-- B

    ----- Patta Pirake Puthi Thelinthen Thangame Gnanathangame
    E-------10-10--10-10-9---88--8—8--7----------------8------8------ E
    B-----10--------------10-----------8----10-10-10--11-10--11-1010- B

    ----- Nalam Purindhai Enakku Nandri Uraippen Unakku
    B---------------10--1010-10-11---10-------10-10--10-10-118---- B
    G-----7--7----7---------------------7---7--------------------- G

    Repeat & enjoy . . . . . . . . . . . . . . . . . . . . . Sathya

    Please do post your comments....................................
     
  2. SATHYA167

    SATHYA167 New Member

    This song is in Keeravani ragam. In western, it takes harmonic minor notes. The tabs are given by taking 's' as 'D' ...... Sathya
     
  3. pearlmaharajan

    pearlmaharajan New Member

    one of the painfull songs of tamil...
     
  4. Sir,
    Konjam doubt.... this part is not syncing properly...
    6-7-7-7--910-7-910--7-7-- G in the second line.
    Regards,
    Abhay
     
  5. rajeshguitar

    rajeshguitar New Member

    Abhay,
    Can you replace the second 9 10 with 5 6 on the B string?
    Haven't played it with the song to ensure correctness.
    Can you please try and post feedback?
    Rajesh
     
  6. SATHYA167

    SATHYA167 New Member

    Thanks Abhay / Rajesh for the feedback. Tabs 5 6 on the B string and tabs 9 10 on the G string are the same notes.

    The first gnanathangame goes like s s s s s, and

    the second gnanathangame goes like rg s rg s s

    The difference is only in the way the word is actually sung - second time with more tongue twisting. Sometimes it is quite difficult to replicate the vocal singing in guitar. Try slowly. Sliding may not work. Please do give further feedback................ Sathya
     
  7. SATHYA167

    SATHYA167 New Member

    Attaching the tabs file for easy access and use. . . . . . . Sathya
     

    Attached Files:

  8. gpinto

    gpinto New Member

    can i get predule for this song?
     
  9. vs.suresh

    vs.suresh New Member

    Thanks Sathya.. I love this song....

    Keep posting...
     
  10. pearlmaharajan

    pearlmaharajan New Member

    who doesn't? :p
     

Share This Page