Tabs for the song Kanmaniyae Kaadhal Enbadhu Karpanaiyo - Another IR + Rajini Hit

Discussion in 'Tamil Guitar Tabs - Submit or Request' started by SATHYA167, Dec 10, 2012.

  1. SATHYA167

    SATHYA167 New Member

    I was watching this song in Raj TV today morning, which again made me to go back to my college days for the next Rajini song.

    A song from the film in which the Superstar was quite reluctant about his role but yet the film which was a big turning point for Rajini to get hero status and pathway to stardom.

    Presenting the tabs for the song Kanmaniyae Kaadhal Enbadhu Karpanaiyo from the film Aarilirundu Arupadu Varai - A melting melody duet by IR.

    The song is composed in E Major and follows the E Major scale notes.

    Part of the song will be tabbed in multiple thread and part in high E string. You can try these tabs:

    E-------------------------9---11--12---12---11------------------------- E
    B-----------9--10---12----------------------------12--10--9------------ B
    G--9--11-------------------------------------------------------11--9--- G

    Listen to the song - You will love it.....

    Practice these tabs and watch this thread for tabs..... Coming back soon.............. Sathya
     
  2. SATHYA167

    SATHYA167 New Member

    Here we go with the tabs:

    ----- Kanmaniyae----Kaadhal--Enbathu--Karpanaiyo---Kaaviyamo-Kann-Varaindha----Oaviyamo

    E-----------------------9--------------------------------------------------------------- E
    B-------------9----12-------12-999------------------------------------------------------ B
    G-----9-9--11-----------------------9--9-11-11-----9-9-11-11--9---9-11--11---9-9-11-11-- G

    -----Eththanai--Eththanai---Inbangal---Nenjinil---Ponguthamma---Palsuvaiyum--Solluthammaa

    B------9-9--9---9------------------------------------------------------------------------ B
    G-----9----------11-11-11---11-9--11--9----------------------------------------------9--- G
    D---------------------------------------11-11-11--11-9-9-11-----9-9-11--11--11-9--9------ D

    ----- Melam--Muzhangida--Thoranam-Aadida--Kaalamum-Vandhathammaa--Neramum--Vandhathammaa

    E----9-12---9-9--9--9---9--12-9--9-9-9---9--12-9---9-7--9--9-12---9--12-9--9-7--9--9-12-- E

    ------Paarvaiyin-Jaadaiyil-Thondridum-Aasaiyil-Paadidum-Ennangale--Indha-Paavaiyin-Ullaththile

    E----9-12-12-14--12-9-9-9--9--12--9---7-7-7----7--9-7---4-2--2-4-----47--7--7-9--7---4--2--2-—4- E

    ------Poovithazh-Thaen-Kulunga--Sindhum--Punnagai-Naan-Mayanga

    E-----4-7--7-7--7--9---9-9--9--------------------------9-9--9-- E
    B----------------------------------------12-12-12--12---------- B
    G--------------------------------9--11------------------------- G

    -------Aayiram--Kaalamum-Naanundhan--Maarbinil---Saainthiruppaen--Vaazhndhiruppaen

    E-----4-6-6-6--6-9-9-9--9-11-11-11--11--14-14----11--9--9--9--7----9--7--7--7--7---- E

    Look for more details with the attachment in the evening.................. Sathya
     
  3. SATHYA167

    SATHYA167 New Member

    The above tabs were given without guitar.

    Now testing the tabs with guitar there is slight change in one or two places and so use the attached file.

    The song is set in Mohanam Raga which means that the tabs are nothing but E Major Pentatonic Scale Notes (Excepting the last line in which there are 2 alien notes).
     

    Attached Files:

  4. SATHYA167

    SATHYA167 New Member

    Hope you will enjoy this song......................

    By the way the next number is a Kamal Love Duet, which is an evergreen IR hit........... Check whether you could get the song......

    E------10-------7---------10--9---------------------E
    B--10------10-------------------------10--8--7------B

    Pick, Play and Enjoy and do post your views / comments................. Sathya
     
  5. SATHYA167

    SATHYA167 New Member

    No guess so far on the above tabs.................. Sathya
     
  6. djadamz

    djadamz New Member

    can u send me the western note just like this eg.pervachalum (A) vaikama (E) ponalum (D) malli (E) vasam(D)

    athu (D) kuthala (E) suga (D) vasam (A)

    ada ipodum (A) eppodum (E) muppodhum (D)thottu (E) persum (D)

    intha(D) pennoda (E)saga (D) vasam (A)
     
  7. djadamz

    djadamz New Member

    can u post wester note just like this pervachalum (A) vaikama (E) ponalum (D) malli (E) vasam(D)

    athu (D) kuthala (E) suga (D) vasam (A)

    ada ipodum (A) eppodum (E) muppodhum (D)thottu (E) persum (D)

    intha(D) pennoda (E)saga (D) vasam (A)
    or email me at djadamz_017@yahoo.com
     
  8. djadamz

    djadamz New Member

    please [post western note please ..i love this song so much...im from malaysia email me djadamz_017@yahoo.com
     
  9. SATHYA167

    SATHYA167 New Member

    Hi djadmz, You are asking for chords and what I had given is the tabs.

    Senthil - Please bail me out. Chords please............. Sathya
     
  10. djadamz

    djadamz New Member

    yes sir would like to have western chords.... Tq sir
     
  11. djadamz

    djadamz New Member

    tq sir i need chords
     
  12. SATHYA167

    SATHYA167 New Member

    Hi djadamz,

    I am not so good in putting down the chords. I tried today. The song is in E Major only and I could get A and B as well in the pallavi.

    Can you try with this and substitute any E Major family / relative chords........ Sathya
     
  13. djadamz

    djadamz New Member

    tq very much sir for your kind help
     
  14. Guitarsen

    Guitarsen New Member

    My version:

    (E)kaNmaniyE kAthal enbathu
    karpanaiyO, kAviyamO
    kaN varaintha OviyamO,
    (E)eththanai (F#m)eththanai
    (E)inbangaL (E6)nenjchinil
    (E)ponguthammA palsuvaiyum solluthammA

    Stanza:
    (C#m)mELam muzangida thOranam aadida
    kaalamum vanthathammA(E)laa lala lala
    (C#m)nEramum vanthathammA(E)laa lala lala
    paarvaiyin (C#m)jaadaiyil pEsidum
    (B)aasaiyal paadidum (E)eNNangaLE
    intha (B)pAvaiyin uLLaththi(E)lE
    (B)pUvithaz thEn kulun(C#m)ga
    sinthum (B)punnagai nAn mayan(C#m)ga
    (F#)aayiram kaalamum naan unthan maarbinil
    saaynthiruppEn (B)vAznthiruppEn
     
  15. SATHYA167

    SATHYA167 New Member

    Thanks a lot Senthil. I could get upto identification of the chords for this song. Beyond that I need more practice and skill development. Djadamz should be able to play this song now............. Sathya
     
  16. djadamz

    djadamz New Member

    Tq sir fotr that chords
     
  17. djadamz

    djadamz New Member

    Tq sir tq very much
     
  18. Guitarsen

    Guitarsen New Member

    URW brother.
     
  19. vs.suresh

    vs.suresh New Member

    Beautiful Song... Thanks Sathya & Senthil for posting the Tabs and Chords...

    Keep posting..
     
  20. djadamz

    djadamz New Member

    Sir can anyone post chords for rajinikanth movie song...vaa vaa vaa ...kanna vaa....tq
     

Share This Page