Tabs For Nothing Gonna Change My Love For U

Discussion in 'English Guitar Tabs - Submit or Request' started by srujan_creator, Feb 17, 2005.

  1. srujan_creator

    srujan_creator New Member

    HI EVERYBODY im
    SRUJAN :ptime:
    WANNA SING A SONG FOR UR LOVE AND PLAY IT ON GUITAR?...

    THE ONE AND ONLY LOVE SONG WHICH ROCKS TILL NOW .....



    NOTHING GONNA CHANGE MY LOVE FOR U :band:

    IF I HAD TO LIVE -----------------
    E----------------7-5--3----------------
    B---3---3--3--------------------------
    G-4---4--4---4----------4-------------
    D--------------------------------------
    A--------------------------------------
    E--------------------------------------
    DAYS WOULD -------
    E----2--3--2---------------------
    B------------3---------------------
    G-4--------------------------------
    D---------------5------------------
    A---------------------------------
    E---------------------------------
    NIGHT WOULD SEEM-----
    E--------------------------
    B-------3-5-3--------------
    G----5----------2----------
    D--5-----------------------
    A--------------------------
    E--------------------------
    REPEAT ........................

    THEN

    COME WITH ME .............
    E---2-3-5-3----------------
    B-5----------3-------------
    G--------------------------
    D--------------------------
    A--------------------------
    E--------------------------

    ..TAKE US WHERE WE WANT TO GO
    E------8--7--8--10--5--3-
    B---3---------------------
    G-------------------------
    D-------------------------
    A-------------------------
    E-------------------------

    HOLD ME AND TOUCH ME NOW .........
    E-----2-3-------2-3------
    B---5------/--5-----------
    G-------------------------
    D-------------------------
    A-------------------------
    E-------------------------

    I DONT WANT TO LIVE WITHOUT U.......
    E-----2---3----7--5--3--5-5------
    B---5--------5--------------------
    G---------------------------------
    D---------------------------------
    A---------------------------------
    E ---------------------------------

    NOTHING GONNA CHANGE MY LOVE FOR U
    E--7-7-7-7-7------------
    B------------3-3--5-5----
    G------------------------
    D-------------------------
    A-------------------------
    E-------------------------

    YOU OUGHT TO KNOW BY NOW HOW MUCH I LOVE U
    E-----5-5-5--------8-7-3--
    B---5----------------------
    G-----------5-4------------
    D--------------------------
    A--------------------------
    E--------------------------

    ONE THING ................................
    E---3-2-3--7--5---5--
    B---------------5-----
    G---------------------
    D---------------------
    A----------------------
    E----------------------

    NOTHING GONNA CHANGE MY LOVE FOR U .......
    E-3-3-3-3-3--2---2-3--
    B---------------5------
    G----------------------
    D----------------------
    A----------------------
    E-----------------------
    SAME TABS FOR THE VERSES ......................
    WAS IT ..OK OR FINE OR GOOD OR FANTASTIC?....
    PLZ LET ME KNOW........ MY NUMBER IS 09849849552...
    :rockon: :beer:
     
  2. rock on man and keep up the TABING
     
  3. Hardik

    Hardik .:.:.:BoRn TaLenT:.:.:.

    hey.......6string devil...you have my avatr..:):):p::p:....
    anyways...@syurjan...nice work...:)
     

Share This Page