Tabs for NARVANA- The man who sold the world

Discussion in 'English Guitar Tabs - Submit or Request' started by rochakchauhan, Oct 1, 2005.

  1. rochakchauhan

    rochakchauhan New Member

    Tabs for NIRVANA- The man who sold the world

    NIRVANA - Man who sold the world


    ---------------------------------------------------
    ---------------------------------------------------
    --2---0-------------------------------------------
    ----------3---2----0----2------------------------
    ---------------------------------------------------
    ---------------------------------------------------

    We passed apon the stairs

    ---------------------------------------------------
    ---------------------------------------------------
    ------0-----3----0-----2-------------------------
    --2------------------------------------------------
    ---------------------------------------------------
    ---------------------------------------------------
    We spoke of was and when


    ---------------------------------------------------
    ---------------------------------------------------
    --2---0-------------------------------------------
    ----------3-----0----2---------------------------
    ---------------------------------------------------
    ---------------------------------------------------

    Although I wasn’t there

    ---------------------------------------------------
    ---------------------------------------------------
    ------0-----3----0-----2-------------------------
    --2------------------------------------------------
    ---------------------------------------------------
    ---------------------------------------------------
    He said I was his friend

    ---------------------------------------------------
    ---------------------------------------------------
    --2-----5--5/3-------2----0---------------------
    ---------------------------------------------------
    ---------------------------------------------------
    ---------------------------------------------------

    Which came as a surprise

    -----------------------------------------!----------------------------
    -----------------------------------------!----------------------------
    --0-----7--7-----5-----3-----2-------!--2--2---2---2/3--2------
    -----------------------------------------!--------------------------3--
    -----------------------------------------!----------------------------
    -----------------------------------------!----------------------------

    I spoke into his eyes...I thought you died alone

    ---------------------------------------------------------------
    ---------------------------------------------------------------
    -2----0-------------------------------------------------------
    ------------3----2------0/2----------------------------------
    ---------------------------------------------------------------
    ---------------------------------------------------------------

    A long long time ago

    --------------------------------------------------------------
    -3----1--------3----1----------1----1----------1----------
    -----------------------------------------3----3-------2-----
    --------------------------------------------------------------
    --------------------------------------------------------------
    --------------------------------------------------------------

    Oh no... not me.... I never lost control....

    ( in the background.....
    -----------------------------------------------------------------
    -----------------------------------------------------------------
    ------------------------------3----4---5-----------------------
    ---------------2--3-----5--------------------------------------
    ----3----5------------------------------------------------------
    ---------------------------------------------------------------- )

    -------------------------------------------------------------------
    -3----1--------3----1----------1----1-1-----------1-----------
    ------------------------------------------------3--3------2------
    -------------------------------------------------------------------
    -------------------------------------------------------------------
    -------------------------------------------------------------------

    You'r face to face....

    -----------------------------------------------------------------------------------------
    -----------------------------------------------------------------------------------------
    --2--2----2-----0---------2/3/2-------2----2---2----0-----2/3/2------------------
    -----------------------------------------------------------------------------------------
    -----------------------------------------------------------------------------------------
    ------------------------------------------------------------------------------------------
     
  2. roy soham

    roy soham New Member

    man look at wat hv u posted??? bull!@#$ here's the original one

    "The Man Who Sold The Word"
    =========================

    As performed by Nirvana (MTV Unplugged video)

    Some of the lyrics may be inaccurate due to Kurt mumbling them at times =B-).

    Tune guitar down 1/2 step.

    C - 33555x
    C# - 44555x - I think it's called a C# anyways :)
    A - 00222x
    D - xx023x
    F - 133211

    Intro (with mild distortion)

    E --------------------------
    B --------------------------
    G --2-2-2-0--2/3\2-0--------
    D --------------------------
    A --------------------------
    E --------------------------

    { Play Intro 6x }

    A
    We passed ...
    D
    Spoken walls ...
    A
    Although I ....
    F
    Sat on ....
    C
    Which came as so ....
    A D
    I spoke into his eyes -- ....
    C
    A long long ....

    (First chorus)

    Oh no, ....
    C# C
    We never lost ...

    The face, to .....
    C#
    With the man .....

    { Play intro 6x }

    A
    I laughed and ....
    D
    Made my way ....
    A
    I searched from ....
    F
    Years and ...
    C
    I gazed all ....
    A D
    We walked a million hills -- ....
    C
    A long ....

    (Second chorus)

    Who knows, ....
    C# C
    I never lost ....

    Your face, ...
    C#
    With the man who ....

    { Play intro 6x }

    Repeat second chorus.

    { Play intro 8x }

    Outro:

    E -------------------------------------------------------
    B -------------------------------------------------------
    G -/9-9-9-9-9-9--\2-2-2-0--2/3\2-0--2-2-2-0--2/3\2-0-----
    D -------------------------------------------------------
    A -------------------------------------------------------
    E -------------------------------------------------------

    E -------------------------------------------------------
    B -------------------------------------------------------
    G -/10-10-10-10-10-10-\9-\7-7-7-7-7-7-/9 \2-2-2-0 2/3\2-0
    D -------------------------------------------------------
    A -------------------------------------------------------
    E -------------------------------------------------------

    E -------------------------------------------------------
    B -------------------------------------------------------
    G -/10-10-10-10-10-10-\9-\7-7-7-7-7-7-/9 \2-2-2-0 2/3\2-0
    D -------------------------------------------------------
    A -------------------------------------------------------
    E -------------------------------------------------------
     
  3. anshphenomenon

    anshphenomenon Rape me :boff:

    @roy..
    the chord used is A#-Bb in place of C#...
     
  4. rochakchauhan

    rochakchauhan New Member

    Dear roy soham... what I posted was the sing along version of the song..... TRY PLAYING IT ... thats what we usually call tabs ...... but buddy what you have posted are called CHORDS.... HOPE I made my self clear...

    No hard feeling though....
    Take care ... n Keep rockin.....
     
  5. CrYpTiC_angel

    CrYpTiC_angel Rebelle!

    why anybody wud play d 'tabs' of d song is beyond me....
     
  6. rochakchauhan

    rochakchauhan New Member

    LOL...
    I wud have to agree with you CrYpTiC_angel ..... But... this forum is for newbies too.. who knows .... if some one wants to start wid tabs then move on to chords... (I did that,,,)

    Hope it went through ur head.... again... if not... neva mind...
    n Keep rockin !
     

Share This Page