Tabs for Mehboob Mere frm FIZA

Discussion in 'Hindi Guitar Tabs - Submit or Request' started by vishweb, Jan 29, 2006.

  1. vishweb

    vishweb VISH Rules...............

    Hi All friends , I'm sending a tabs for Mehboob Mere (FIZA) , Just check it !!!!!!!!!
    Comments r always welcome !!!!!!!!!!!!!!!!!!!!!!!!!

    Intro Music
    E-------------------------------------------------------------------------------------------------------------
    B-----10-7--10-10-7-----10-7---------------11-10-8-11-11-10-8--11-10-8-7--7---------------------
    G----7----8------------8-7------8--7---7----7-------------------------7-------------8----------7-8-8--8-7----7--------
    D--------------------------------------10-------------------------------------------------------10--------------10----------------
    A-------------------------------------------------------------------------------------------------------------
    E------------------------------------------------------------------------------------------------------------


    E------------------------------------------------------------
    B-10-11-10-10-10-10-13-11-10--------10-11-10-10-10-10-10-13-13-11-10-10-
    G------------------------------------------------------------
    D------------------------------------------------------------
    A------------------------------------------------------------
    E------------------------------------------------------------
    Mehboob mereee.......! Mehboob mere, mehboob mere

    E------------------------------------------------------------
    B--10-10-11--11--11--11-10-13-11-10----------------------------------------------
    G----------------------------------------------12--12-12-12--12-12-12--12-10--12-10-------------
    D-----------------------------------------------------------------------------------------------13-12--------
    A------------------------------------------------------------
    E------------------------------------------------------------
    Teri aankhon se mujhe peene de , Kuch dard hai mere seene mein

    E------------------------------------------------------------
    B------------------------------------------------------------
    G------------------------------------------------------------
    D-10-10-12-12-12-13-13-13--12-12-12-------------------------------------------------
    A------------------------------------------------------------
    E------------------------------------------------------------
    Mujhe mast mahaul mein jeene de ,

    Play same as above :--

    Mehboob mere, mehboob mere
    Teri aankhon se mujhe peene de
    Kuch dard hai mere seene mein
    Mujhe mast mahaul mein jeene de

    Music :--
    E------------------------------------------------------------
    B------------------------------------------------------------
    G-----------------------------------------------------------------------------------10-------------------------
    D----10-12-13-12-12-12---{-10-10-12-12-12-13-13-13--12-12-12-}-12-13----13-12-10---Repeat{}----
    A-12-----------------------------------------------------------
    E------------------------------------------------------------


    Guitar piece
    E------------------------------------------------------------
    B------------------------------------------------------------
    G------------------------------------------------------------
    D-[{-10-12-12-}Repeat 3 Times--12-12-13-11-]-Repeat 2 Times--
    A------------------------------------------------------------
    E------------------------------------------------------------

    E------------------------------------------------------------
    B------------------------------------------------------------
    G------------------------------------------------------------
    D-10-10-12-12-13-13--13-13-12-12-12-12-----10-10-12-12-13-13--13-13-12-12-12-12-
    A------------------------------------------------------------
    E------------------------------------------------------------
    Mujhe mast mast mujhe mast mast Mujhe mast mast haan mast mast
    Mujhe mast mast haan mast mast Haan mast mast mujhe mast mast

    Antra

    E------------------------------------------------------------
    B------------------------------------------------------------
    G------------------------------------------------------------
    D-10-12-12-12-13-----------10-12-12-12-----------------------
    A-------------------------------------------------12---------------------
    E------------------------------------------------------------
    Aankhon mein kaajal, pairon mein paayal
    In adaaon se main , karoon sab ko ghaayal

    E------------------------------------------------------------
    B--{10-10-11-} 4 Times Repeat---10-10-10--10--12-13-11-10------------
    G----------------------------------------------------------------------------12-12-
    D------------------------------------------------------------
    A------------------------------------------------------------
    E------------------------------------------------------------
    Mehboob ki mehbooba tarse , Sach kehde pyaar yeh kab barse

    E------------------------------------------------------------
    B-------------------11-10-------------------11-10---------------------------
    G--12-10-12-12---------12-10-10-12-12----------12-10-----------12-10-------------------------
    D------------------------------------------------------------13-13-13------------13-12-12--
    A------------------------------------------------------------
    E------------------------------------------------------------
    Aa narmi le meri aankhon se , Kuch pataa nahin kya ho kal ko

    Mehboob mere
    Mehboob mere, mehboob mere
    Teri aankhon se mujhe peene de
    Kuch dard hai mere seene mein
    Mujhe mast mahaul mein jeene de

    Mujhe mast mast mujhe mast mast
    Mujhe mast mast haan mast mast
    Mujhe mast mast mujhe mast mast
    Mujhe mast mast haan mast mast
    Mast mast mast mast mast mast mast mast mast mast

    Yeh nazar hamaare hai badi karaari
    Samjho voh jeeta jispe dil haare
    Haan ishq mohabbat karle tu
    Yeh pal naa tehrege kal ko
    Aa narmi le meri aankhon se
    Kuch pataa nahin kya ho kal ko
    Mehboob mere
    Mehboob mere, mehboob mere
    Teri aankhon se mujhe peene de
    Kuch dard hai mere seene mein
    Mujhe mast mahaul mein jeene de - 4
    Mujhe mast mast mujhe mast mast
    Mujhe mast mahaul mein jeene de
    Haan mujhe mast mast mujhe mast mast
    Mujhe mast mahaul mein jeene de ...
     
  2. desividesi

    desividesi New Member

    would try them out
    cheers
     

Share This Page