tabs for humko maloom hai jaaneman

Discussion in 'Hindi Guitar Tabs - Submit or Request' started by shakoor4u, Dec 7, 2006.

  1. shakoor4u

    shakoor4u New Member

    req : tabs for humko maloom hhai--from jaaneman
     
  2. kaylash

    kaylash New Member

    Gentlemen, I am looking for JAHAAN TERI YE NAZAR HEIN chords.
    If anyone has it, please please please mujhe dedo!

    jagte raho
    ======================================================
     
  3. zicky5608

    zicky5608 Power Shortage

    In 2 months, someone will post it. I will email you then.
     
  4. shakoor4u

    shakoor4u New Member

    Humko Maloom Hai


    Track 1
    Q Q Q Q Q Q Q Q Q Q Q Q
    E||-----------------0----|--1----0--------------|------------0----0----|
    B||--1----3----3---------|------------3----1----|--3----3--------------|
    G||----------------------|----------------------|----------------------|
    D||----------------------|----------------------|----------------------|
    A||----------------------|----------------------|----------------------|
    E||----------------------|----------------------|----------------------|


    Q Q Q Q Q Q Q Q Q Q Q Q
    ------------3----3----|--3----5----8----7----|--5----3----3----5----|
    --3----3--------------|----------------------|----------------------|
    ----------------------|----------------------|----------------------|
    ----------------------|----------------------|----------------------|
    ----------------------|----------------------|----------------------|
    ----------------------|----------------------|----------------------|


    Q Q Q Q Q Q Q Q Q Q Q Q Q
    --3----1----0----3----|-----------------0----|--0-------------------|-------||
    ----------------------|--1----3----3---------|-------3----1----0----|--1----||
    ----------------------|----------------------|----------------------|-------||
    ----------------------|----------------------|----------------------|-------||
    ----------------------|----------------------|----------------------|-------||
    ----------------------|----------------------|----------------------|-------||




    Duration Legend
    ---------------
    W - whole
    H - half
    Q - quarter
    E - 8th
    S - 16th
    T - 32nd
    X - 64th
    . - note dotted
    |-n-| - n-tuplets


    Tablature Legend
    ----------------
    L - tied note
    x - dead note
    g - grace note
    (n) - ghost note
    > - accentuded note
    NH - natural harmonic
    AH - artificial harmonic
    TH - tapped harmonic
    SH - semi harmonic
    PH - pitch harmonic
    h - hammer on
    p - pull off
    b - bend
    br - bendRelease
    pb - preBend
    pbr - preBendRelease
    brb - bendReleaseBend
    \n/ - tremolo bar dip
    \n - tremolo bar dive
    -/n - tremolo bar Release up
    /n\ - tremolo bar inverted dip
    /n - tremolo bar return
    -\n - tremolo bar Release down
    S - shift slide
    s - legato slide
    / - slide into from below or out of upwards
    \ - slide into from above or out of downwards
    ~ - vibrato
    W - wide vibrato
    tr - trill
    TP - tremolo picking
    T - tapping
    S - slap
    P - pop
    < - fade in
    ^ - brush up
    v - brush down
     
  5. basit_jaaaani

    basit_jaaaani I'm gUnnin' fer uuu

    search for it
    it's posted
     

Share This Page